Ads

Traveler's Inn (Sorcerian) Guitar Tab

Submitted: Sep 09, 2008 by DSheltonator (Last updated: Oct 31, 2009)

5
Average: 5 (3 votes)
Download | Listen
Game: Sorcerian
Composer(s): Yuzo Koshiro, Hideaki Nagata, Mieko Ishikawa, Reiko Takebayashi
Style: Arrangement, Fingerstyle

AutoScroll: Slow | Medium | Fast
Traveler's Inn
Sorcerian


     H        Q         Q    Q    Q       Q    Q    Q       H.            
E||----------------||------------------|-----------------|---------------|
B||----------------||---3----2---------|--2----0---------|---------------|
G||----------------||*--4---------4----|--2---------2----|--4------------|
D||-----------4----||*--4--------------|--2--------------|--4------------|
A||----------------||---2--------------|-----------------|--2------------|
E||----------------||------------------|-----------------|---------------|


  ^                ^                 ^                 ^             
  Q    H           Q    Q    Q       Q    Q    Q       H.            
-------2--------|-----------------|------------0----|--2------------|
--2-------------|--3----2---------|--2----3---------|--0------------|
--2-------------|--4---------4----|--2--------------|--0------------|
--2-------------|--4--------------|--2--------------|--0------------|
----------------|--2--------------|-----------------|---------------|
----------------|-----------------|-----------------|--3------------|


  ^               ^                                   ^                 
  H.              Q    Q    Q       Q    Q    Q       E  E  E  E  Q     
--L------------|-----------------|-------0---------|-------------------|
---------------|--3----0---------|------------3----|--2--3--2----------|
---------------|--0---------0----|-----------------|--2--------2-------|
--L------------|--2--------------|--2--------------|--4-----------4----|
--L------------|--2--------------|--0--------------|--5----------------|
--L------------|--0--------------|-----------------|-------------------|


                                        ^                  ^               
  E  E  E  E  Q       Q    Q    Q       Q    Q     Q       Q    Q    Q     
-------------------|-----------------|------------------|--2----5----3----|
-------------------|------------0----|--2----3S----5----|--2--------------|
-------------------|--0----2---------|--2---------------|--2--------------|
-------------------|-----------------|--2---------------|--4--------------|
--4--5--4--0-------|-----------------|--0---------------|--5--------------|
--------------2----|--0--------------|------------------|-----------------|


  ^               ^                 ^               ^               
  H.              Q    Q    Q       H.              Q    Q    Q     
--2------------|--2----0---------|--0------------|--0--------------|
--2------------|--0---------3----|--2------------|--2----3----2----|
--2------------|--0--------------|--2------------|--0--------------|
--4------------|--0--------------|--2------------|--2--------------|
--5------------|-----------------|--0------------|--1--------------|
---------------|--3--------------|---------------|-----------------|


  ^               ^                                   ^               
  H.              Q    Q    Q       E  E  H           Q    Q    Q     
---------------|-----------------|-----------------|-------0----2----|
--3------------|--3----2---------|--2--------------|--3--------------|
--4------------|--4---------4----|--------2--------|--4--------------|
--4------------|--4--------------|--------2--------|--4--------------|
--2------------|--2--------------|-----4-----------|-----------------|
---------------|--0--------------|--2--------------|--3--------------|


  ^                  ^                ^                 ^    ^         
  E  E  Q    Q       Q    H           E  E  H           Q    H         
--0---------------|----------------|--------0--------|-------2--------|
--2-----2---------|-------3--------|--0--------------|--3----3--------|
--2----------2----|--4-------------|--1--------------|--4----4--------|
--2---------------|--4-------------|--2--2-----------|--4-------------|
-----0------------|--2-------------|-----------------|--2-------------|
------------------|----------------|-----------------|----------------|


  ^    ^             ^              
  Q    H             H.             
--0--------------||--2------------||
--0----0---------||--3------------||
--1----1--------*||--4------------||
-------2--------*||--4------------||
-------2---------||--2------------||
-----------------||---------------||
Login or Register to remove this ad.