Ads

Peaceful Forest (Ragnarok Online) Guitar Tab

Submitted: Oct 11, 2007 by Kabukibear (Last updated: Nov 27, 2009)

4.90909
Average: 4.9 (11 votes)
Download | Listen
Game: Ragnarok Online
Composer(s): soundTeMP
Style: Fingerstyle, Transcription

AutoScroll: Slow | Medium | Fast
Peaceful Forest                                 
~Ragnarok Online~
Composed by: soundTeMP
Transcribed by: Justin Lincoln

(Capo 1)



     W                   W                   W                 
E||-------------------|-------------------|-------------------|
B||-------------------|-------------------|-------------------|
G||-------------------|-------------------|-------------------|
D||-------------------|-------------------|-------------------|
A||-------------------|-------------------|-------------------|
E||-------------------|-------------------|-------------------|


                      ^                               ^               
  W                   H        E.  S S S S S    S S S S H.            
-------------------|--3--------L-----3-------|------1-0-L------------|
-------------------|--1--------L-----------1-|--------0-L------------|
-------------------|--2--------L---------2---|----0---0-L------------|
-------------------|--3--------L---3---3-----|--2--------------------|
-------------------|-------------------------|-----------------------|
-------------------|-------------------------|-----------------------|


  ^                               ^                                   
  H        E.  S S S S S    S S S S H.              W                 
--3--------L-----3-------|------1-0-L------------|-------------------|
--1--------L-----------1-|------3-0-L------------|-------------------|
--2--------L---------2---|----0---0-L------------|-------------------|
--3--------L---3---3-----|--2--------------------|-------------------|
-------------------------|-----------------------|-------------------|
-------------------------|-----------------------|-------------------|


  E  S S S S S S S E.  Q       E  S S S S S S S S S S E  S S  
---------0---------3---L----|---------3-----1-L-----0-L------|
-------0-------0-L----------|-------0-----0--------------3-1-|
-----0-------0--------------|-----0-----0---------0----------|
----------------------------|--------------------------------|
--3--------3----------------|--3----------------3------------|
----------------------------|--------------------------------|


  E  S S S S S S S E.  Q       E  S S S S S S S E  S S S S S  
---------3---------1---L----|---------3-----1-L----0-L-------|
-------1-------1-L----------|-------1--------------------3-1-|
-----2-------2--------------|-----2-------2------------------|
-----------3----------------|-----------3-------3------3-----|
--3-------------------------|--3-----------------------------|
----------------------------|--------------------------------|


                               ^     ^                       
  E  S S S S S S S E.  Q       S S S S S S S S S S S S Q     
---------0---------3---L----|--3-----1-L-----0-L------------|
-------0-------0-L----------|--1---1-1-L-------------3-L----|
-----0-------0--------------|--2-----2-L-------------0-L----|
----------------------------|------------3-3-------0--------|
--3--------3----------------|----3--------------------------|
----------------------------|--------------------3----------|


  E  S S S S S S S E  E  E.     E  S S S S S S S S S S Q     
---------0-----0-L----3------|---------0-----0-L-----3-L----|
-------0-----0---------------|-------0-----0-------0--------|
-----0-----------------------|-----0------------------------|
--2--------2-------2-----2---|--2--------2-------2----------|
-----------------------------|------------------------------|
-----------------------------|------------------------------|


  E  S S S S S S S E.  Q       E  S S S S S S S S S S S S S S  
---------2---------5---L----|---------5-----3-L-----2-L-------|
-------2-------2-L----------|-------2-----2---------------5-3-|
-----2-------2--------------|-----2-----2---------2-----2-----|
--0--------0----------------|--0----------------0-------------|
----------------------------|---------------------------------|
----------------------------|---------------------------------|


  E  S S S S S S S E.  Q       E  S S S S S S S E  S S S S S  
---------3---------1---L----|---------3-----1-L----0-L-------|
-------1-------1-L----------|-------1--------------------3-1-|
-----2-------2--------------|-----2-------2------------------|
-----------3----------------|-----------3-------3------3-----|
--3-------------------------|--3-----------------------------|
----------------------------|--------------------------------|


  E  S S S S S S S E.  Q       S  S  S S S S E  S S S S S S E   
---------0---------3---L----|----------------1--------------1--|
-------0-------0-L----------|----------3-L----------1-3--------|
-----0-------0--------------|--------3------------0-------0----|
----------------------------|----(0)---------------------------|
--3--------3----------------|-------------------3-------3------|
----------------------------|--3-----------3-------------------|


                                            ^           
  E  S S S S S S S E.  Q       E  S S S S S S H         
---------3---------1---L----|---------3-----1-L--------|
-------1-------1-L----------|-------1-------1-L--------|
-----2-------2--------------|-----1-------1-1-L--------|
--3--------3----------------|--3--------3---3-L--------|
----------------------------|--------------------------|
----------------------------|--------------------------|


  E  S S S S S S S E.  Q       E  S S S S S S S S S S S S S S  
---------0---------3---L----|---------3-----1-L-----0-L-------|
-------0-------0-L----------|-------0-----0---------------3-1-|
-----0-------0--------------|-----0-----0---------0-----------|
----------------------------|---------------------------------|
--3--------3----------------|--3----------------3-------3-----|
----------------------------|---------------------------------|


  E  S S S S S S S E.  Q       E  S S S S S S S E  S S S S S  
---------3---------1---L----|---------3-----1-L----0-L-------|
-------1-------1-L----------|-------1--------------------3-1-|
-----2-------2--------------|-----2-------2------------------|
-----------3----------------|-----------3-------3------3-----|
--3-------------------------|--3-----------------------------|
----------------------------|--------------------------------|


  E  S S S S S S S E.  Q       S S S S S S S S S S S S Q     
---------0---------3---L----|--3-----1-L-----0-L------------|
-------0-------0-L----------|--1---1-1-L-------------3-L----|
-----0-------0--------------|--2-----2-L-------------0-L----|
----------------------------|------------3-3-------0--------|
--3--------3----------------|----3--------------------------|
----------------------------|--------------------3----------|


                                ^               ^         
  E  S S S S S S S E  E  E.     S S S S S S S S H         
---------0-----0-L----3------|--5-----5-L-----5-5--------|
-------0-----0---------------|--5---5-------5---5--------|
-----0-----------------------|--7---------7-----6--------|
--2--------2-------2-----2---|--7-7-------------7--------|
-----------------------------|---------------------------|
-----------------------------|---------------------------|


  E  S S S S S S S E.  Q       E  S S S S S S S S S S S S S S  
---------2---------5---L----|---------5-----3-L-----2-L-------|
-------2-------2-L----------|-------2-----2---------------5-3-|
-----2-------2--------------|-----2-----2---------2-----2-----|
--0--------0----------------|--0----------------0-------------|
----------------------------|---------------------------------|
----------------------------|---------------------------------|


  E  S S S S S S S E.  Q       E  S S S S S S S E  S S S S S  
---------3---------1---L----|---------3-----1-L----0-L-------|
-------1-------1-L----------|-------1--------------------3-1-|
-----2-------2--------------|-----2-------2------------------|
-----------3----------------|-----------3-------3------3-----|
--3-------------------------|--3-----------------------------|
----------------------------|--------------------------------|


  E  S S S S S S S E.  Q       S  S  S S S S E  S S S S S S E   
---------0---------3---L----|----------------1--------------1--|
-------0-------0-L----------|----------3-L----------1-3--------|
-----0-------0--------------|--------3------------0-------0----|
----------------------------|----(0)---------------------------|
--3--------3----------------|-------------------3-------3------|
----------------------------|--3-----------3-------------------|


                                            ^           
  E  S S S S S S S E.  Q       E  S S S S S S H         
---------3---------1---L----|---------3-----1-L--------|
-------1-------1-L----------|-------1-------1-L--------|
-----2-------2--------------|-----1-------1-1-L--------|
--3--------3----------------|--3--------3---3-L--------|
----------------------------|--------------------------|
----------------------------|--------------------------|

    Repeat and fade out...
    E  S S S S S S S E.  Q       E  S S S S S S S S S S E  S S  
|----------0---------3---L----|---------3-----1-L-----0-L------|
|--------0-------0-L----------|-------0-----0--------------3-1-|
|*-----0-------0--------------|-----0-----0---------0----------|
|*----------------------------|--------------------------------|
|---3--------3----------------|--3----------------3------------|
|-----------------------------|--------------------------------|


  E  S S S S S S S E.  Q       E  S S S S S S S E  S S S S S    
---------3---------1---L----|---------3-----1-L----0-L--------||
-------1-------1-L----------|-------1--------------------3-1--||
-----2-------2--------------|-----2-------2------------------*||
-----------3----------------|-----------3-------3------3-----*||
--3-------------------------|--3------------------------------||
----------------------------|---------------------------------||




Duration Legend
---------------
W - whole
H - half
Q - quarter
E - 8th
S - 16th
T - 32nd
X - 64th
. - note dotted
|-n-|  - n-tuplets


Tablature Legend
----------------
L - tied note
(n) - ghost note
^ - brush up
Login or Register to remove this ad.

9 comments on Peaceful Forest

Love the tab, a lot of fun

Love the tab, a lot of fun to play

Awesome, i really enjoyed

Awesome, i really enjoyed playing peaceful forest. Can you do me a favor, do you have the tab of Al de Baran?, go to http://www.youtube.com/watch?v=OK28OtGx0io this guy plays the song but only the first part, i want to know whats next.
Thanks

wow this is the first song i

wow this is the first song i learned to play on guitar O_o thanks for the tabs!

Its a great tab, can you tab

Its a great tab, can you tab Al de Baran?

That's really beautiful, and

5

That's really beautiful, and a great relaxing thing to play. ^ ^ Great job.

really beautiful

5

really beautiful

Is anyone still interested

Is anyone still interested in the Al de Baran Theme? I can play the guitar part but it would be a load of work to tab that.

yes please. post up the alde

yes please. post up the alde baran theme, you'll be adored by many guitarists

yeah me to wan tab for al-de

yeah me to wan tab for al-de baran theme