style="display:inline-block;width:728px;height:90px"
data-ad-client="ca-pub-7696863992758820"
data-ad-slot="5242914555">

The Weeping Willow (King's Quest 5) Guitar Tab

Submitted: Oct 28, 2007 by Kabukibear (Last updated: Nov 27, 2009)

5
Average: 5 (4 votes)
Download | Listen
Game: King's Quest 5
Composer(s): Ken Allen, Mark Seibert
Style: Fingerstyle, Transcription

AutoScroll: Slow | Medium | Fast
The Weeping Willow                                
~King's Quest V~
Composed by: Mark Seibert
Arranged by: Justin Lincoln

bpm=70

     ^                                       ^                   
     E  S S E  E  E  E     Q.     E  Q       E  S S E  E  E  E   
E||--0--2-3-2--0--------|-----------------|--0--2-3-2--0-----0--|
B||--0------------3--1--|--0--------------|--0------------3-----|
G||---------------------|-----------------|---------------------|
D||--2------------0-----|--2--------------|--2------------0-----|
A||---------------------|-----------------|---------------------|
E||---------------------|---------0--0----|---------------------|


                                          ^              
  Q.     E  Q       E.  S S S E  E  E     H        Q     
--0--------------|------5-3-2-0--2-----|--0-------------|
-----------------|--1---------------3--|--0-------------|
--2--------------|---------------------|----------------|
-----------------|---------------------|--2--------2----|
---------0--0----|--0------------2-----|----------------|
-----------------|---------------------|----------------|

1st ending------------------,    2nd ending--------------
  ^                              ^                          
  E.  S S S E  S S E  E  E       E.  S S S E  S S E  E  E   
--5---5-3-2-0--3-2-0--2------||--5---5-3-2-0--3-2-0--2--0--|
-------------------------4---||----------------------------|
--5-------------------------*||--5-------------------------|
----------------------------*||----------------------------|
--0-------------------2------||--0-------------------------|
---------------2-------------||---------------2------------|


                               ^            ^        ^               
  S S E  E  E  S S E  E  E     E  S S E  E  E  E     Q.     E  Q     
--3-2-0--2--0--3-2-0--2-----|--4--5-7-5--4--2--4--|--4--------------|
-------------------------4--|--5------------3-----|--5--------------|
----------------------------|--4------------2-----|--4--------------|
----------------------------|---------------0-----|-----------------|
----------------------------|---------------------|-----------------|
--3------------2------------|--0------------------|--0------0--0----|


  ^            ^        ^                      ^            ^      
  E  S S E  E  E  E     Q    S S S S S S E     E  S S E  E  E  E   
--4--5-7-5--4--2--0--|--0------------0-2-4--|--4--5-7-5--4--2--4--|
--5------------3-----|--2------0-2-3--------|--5------------3-----|
--4------------2-----|--2----2--------------|--4------------2-----|
---------------0-----|----------------------|---------------0-----|
---------------------|--0-------------------|---------------------|
--0------------------|----------------------|--0------------------|


  ^                 ^            ^        ^                      ^              
  Q.     E  Q       E  S S E  E  E  E     Q    S S S S S S E     H.             
--4--------------|--4--5-7-5--4--2--0--|--0------------0-2-4--|--7------------||
--5--------------|--5------------3-----|--2------0-2-3--------|--9------------||
--4--------------|--4------------2-----|--2----2--------------|--9------------||
-----------------|---------------0-----|----------------------|---------------||
-----------------|---------------------|--0-------------------|---------------||
--0------0--0----|--0------------------|----------------------|--0------------||




Duration Legend
---------------
W - whole
H - half
Q - quarter
E - 8th
S - 16th
T - 32nd
X - 64th
. - note dotted
|-n-|  - n-tuplets


Tablature Legend
----------------
L - tied note
^ - brush up
Login or Register to remove this ad.

5 comments on The Weeping Willow

Hey, I like half way

Hey, I like half way through. Sounds pretty!

hehe yeah, the beginning is

hehe yeah, the beginning is what is played normally when you haven't saved the weeping willow/princess yet, she's sad. The second part plays when you manage to change her back into a princess.

no way!! i just tabbed this

no way!! i just tabbed this out myself like two months ago!! it's so weird because it's almost 90% identical (up to the halfway point, because i didn't tab out the part where you change her back.) also, it was surprising, because i don't know many people who would remember that song

I got a question

I got a question Kabukibear.Umm in your video of you playing this you said its a good song to learn finger picking to. My question is how should i go about finger picking cause i cant get my fingers to do what i want them to. I think i might be doin somethin wrong possibly. Any help would be appreciated. Thanks

what's your skill level with guitar?

it is really easy compared to most, i can do most of it and I've only been playing for 4 months or so, my suggestion, if you're having trouble, would be to get some books and get better at single notes and knowing the guitar better before trying again, or there are a lot of good videos online you can watch as well.