Hungry Eagle (King's Quest 5) Guitar Tab

Submitted: Feb 18, 2008 by cgseth (Last updated: Oct 04, 2009)

5
Average: 5 (1 vote)
Download | Listen
Game: King's Quest 5
Composer(s): Ken Allen, Mark Seibert
Style: Arrangement, Fingerstyle

AutoScroll: Slow | Medium | Fast
King's Quest V - Hungry Eagle (cgseth)
Composed by Mark Seibert

Guitar
E|-----1---0------|----------------|-----1---0------|-3--------------|
B|-----1---1-----1|----------------|-----1---1-----1|---------0------|
G|-0---0---0---0--|-2-----------0--|-0---0---0---0--|-----3----------|
D|----------------|-3---3---3------|----------------|---3------------|
A|-3--------------|-3---3---3---2--|-3--------------|-1-------2------|
E|----------------|-1-----------3--|----------------|-------------3--|

E|-----1---0------|-----5---3---1--|-0--------------|-1--------------|
B|-----1---1-----1|---------1------|-1--------------|-0---0---0---0--|
G|-0---0---0---0--|-2---5---2---2--|-0---0---0---0--|-0---0---0---0--|
D|---------2------|-3---3---0------|-----2---2---2--|-3-----0--------|
A|-3-------3------|-0--------------|---------3------|----------------|
E|-------3--------|----------------|-0--------------|---------3------|

E|-----1---0------|----------------|-----1---0------|-3--------------|
B|-----1---1-----1|----------------|-----1---1-----1|---------0------|
G|-0---0---0---0--|-2-----------0--|-0---0---0---0--|-----3----------|
D|----------------|-3---3---3------|----------------|---3------------|
A|-3--------------|-3---3---3---2--|-3--------------|-1-------2------|
E|----------------|-1-----------3--|----------------|-------------3--|

E|-----1---0------|-----5---3---1--|-0--------------|-1--------------|
B|-----1---1-----1|---------1------|-1--------------|-0---0---0---0--|
G|-0---0---0---0--|-2---5---2---2--|-0---0---0---0--|-0---0---0---0--|
D|---------2------|-3---3---0------|-----2---2---2--|-3-----0--------|
A|-3-------3------|-0--------------|---------3------|----------------|
E|-------3--------|----------------|-0--------------|---------3------|

E|-0--------------|
B|-1--------------|
G|-0--------------|
D|-2--------------|
A|-3--------------|
E|----------------|
Login or Register to remove this ad.

1 comment on Hungry Eagle

much harder than it looks,

5

much harder than it looks, but it's very pretty.