Ads

Voyager (Final Fantasy XI) Guitar Tab

Submitted: Sep 08, 2008 by DSheltonator (Last updated: Oct 31, 2009)

5
Average: 5 (1 vote)
Download | Listen
Game: Final Fantasy XI
Composer(s): Nobuo Uematsu, Kumi Tanioka, Naoshi Mizuta
Style: 2 or more instruments, Transcription
Series: Final Fantasy

AutoScroll: Slow | Medium | Fast
Voyager
Final Fantasy XI


Guitar 1

     E  S E  S E  S S S E  S E     E  S E  S E  S S S E  S E   
E||-----------------------------|-----------------------------|
B||-----------------0-----------|-----------------0-----------|
G||-------0--2----2---0----0----|-------0--2----2---0----0----|
D||-----0------0--------0----0--|-----0------0--------0----0--|
A||-----------------------------|-----------------------------|
E||--3--------------------------|--3--------------------------|


  E  S E  S E  S S S E  S E     E  S E  S E  S S S E  S E   
-----------------------------|-----------------------------|
-----------------0-----------|-----------------0-----------|
-------0--2----2---0----0----|-------0--2----2---0----0----|
-----0------0--------0----0--|-----0------0--------0----0--|
-----------------------------|-----------------------------|
--3--------------------------|--3--------------------------|


  E  S E  S E  S S S E  S E     E  S E  S E  S S S E  S E   
-----------------------------|-----------------------------|
-----------------0-----------|-----------------0-----------|
-------0--2----2---0----0----|-------0--2----2---0----0----|
-----0------0--------0----0--|-----0------0--------0----0--|
-----------------------------|-----------------------------|
--3--------------------------|--3--------------------------|


  E  S E  S E  S S S E  S E     E  S E  S E  S S S E  S E   
-----------------0-----------|-----------------0-----------|
-------1--3----3---1----1----|-------1--3----3---1----1----|
-----0------0--------0----0--|-----0------0--------0----0--|
-----------------------------|-----------------------------|
--3--------------------------|--3--------------------------|
-----------------------------|-----------------------------|


  E  S E  S E  S S S E  S E     E  S E  S E  S S S E  S E   
-----------------------------|-----------------------------|
-----------------3-----------|-----------------3-----------|
----------0----2---0----0----|----------0----2---0----0----|
-------4-------------4-------|-------4-------------4-------|
-----2------2-------------2--|-----2------2-------------2--|
--0--------------------------|--0--------------------------|


  E  S E  S E  S S S E  S E     E  S E  S E  S S S E  S E   
-----------------0-----------|----------0----0-2-----------|
---------------3-------------|-------3-----------1----1----|
-------0--2--------2-0--2----|-----2------2--------2-------|
-----------------------------|--0-----------------------0--|
-----3------3-------------3--|-----------------------------|
--1--------------------------|-----------------------------|


  E  S E  S E  S S S E  S E     E  S E  S E  S S S E  S E   
-----------------------------|-----------------------------|
-----------------0-----------|-----------------0-----------|
-------0--2----2---0----0----|-------0--2----2---0----0----|
-----0------0--------0----0--|-----0------0--------0----0--|
-----------------------------|-----------------------------|
--3--------------------------|--3--------------------------|


  E  S E  S E  S S S E  S E     E  S E  S E  S S S E  S E   
-----------------0-----------|-----------------0-----------|
-------1--3----3---1----1----|-------1--3----3---1----1----|
-----0------0--------0----0--|-----0------0--------0----0--|
-----------------------------|-----------------------------|
--3--------------------------|--3--------------------------|
-----------------------------|-----------------------------|


  E  S E  S E  S S S E  S E     E  S E  S E  S S S E  S E   
-----------------------------|-----------------------------|
-----------------3-----------|-----------------3-----------|
----------0----2---0----0----|----------0----2---0----0----|
-------4-------------4-------|-------4-------------4-------|
-----2------2-------------2--|-----2------2-------------2--|
--0--------------------------|--0--------------------------|


  E  S E  S E  S S S E  S E     E  S E  S E  S S S E  S E   
-----------------0-----------|-----------------------------|
---------------3-------------|----------2----2-4-----------|
-------0--2--------2-0--2----|-------2-----------2----2----|
-----------------------------|-----4------4--------4----4--|
-----3------3-------------3--|--2--------------------------|
--1--------------------------|-----------------------------|


  E  S E  S E  S S S E  S E     E  S E  S E  S S S E  S E   
---------------0-2-----------|-----------------------------|
----------3-L------3----3----|----------2-L--2-3-----------|
-------4-------------4----4--|-------2-----------2----2----|
-----5-----------------------|-----4---------------4----4--|
-----------------------------|--2--------------------------|
--0--------------------------|-----------------------------|


  E  S E  S E  S S S E  S E     E  S E  S E  S S S E  S E   
---------------0-2-----------|-----------------------------|
----------3-L------3----3----|----------2-L--2-3-----------|
-------4-------------4----4--|-------2-----------2----2----|
-----5-----------------------|-----4---------------4----4--|
-----------------------------|--2--------------------------|
--0--------------------------|-----------------------------|


  E  S E  S E  S S S E  S E     E  S E  S E  S S S E  S E   
-----------------0-----------|--0--------------------------|
--3-------3-L--3-------------|---------------2-4-----------|
-------4-----------4----4----|----------2-L------2----2----|
-----5---------------5----5--|-------4-------------4----4--|
-----------------------------|-----4-----------------------|
-----------------------------|-----------------------------|


  E  S E  S E  S S S E  S E     E  S E  S E  S S S Q    S  
-----------------0-----------|--0-------0-L--0-2----------|
--3-------3-L--3---0----0----|-------0-----------2--------|
-------2-------------1----1--|-----0---------------2----L-|
-----4-----------------------|----------------------------|
-----------------------------|----------------------------|
-----------------------------|----------------------------|


  E  S E  S E  S S S E  S E     E  S E  S E  S S S E  S E   
---------------0-2-----------|-----------------------------|
----------3-L------3----3----|----------2-L--2-3-----------|
-------4-------------4----4--|-------2-----------2----2----|
-----5-----------------------|-----4---------------4----4--|
-----------------------------|--2--------------------------|
--0--------------------------|-----------------------------|


  E  S E  S E  S S S E  S E     E  S E  S E  E  S E  E.   
---------------0-2-----------|------------------0----0---|
----------3-L------3----3----|----------2-L--0----0------|
-------4-------------4----4--|-------2-------------------|
-----5-----------------------|-----4---------------------|
-----------------------------|--2------------------------|
--0--------------------------|---------------------------|


  E  S E  S E  S S S E  S E     E  S E  S E  S S S E  S E   
-----------------0-----------|--0--------------------------|
--3-------3-L--3-------------|---------------2-4-----------|
-------4-----------4----4----|----------2-L------2----2----|
-----5---------------5----5--|-------4-------------4----4--|
-----------------------------|-----4-----------------------|
-----------------------------|-----------------------------|


  E  E  S E  S S E  S E  E     E  E  S E  S S E  S E  E   
----------0------0----------|----------0------0----------|
--------3------3------------|--------3------3------------|
--4-------------------4-----|--2-------------------2-----|
-----5-------5------5----5--|-----4-------4------4----4--|
----------------------------|----------------------------|
----------------------------|----------------------------|


  E  E  S E  S S S S E  E.     E  E  S S E  H          
----------0--L-0-2----------|------------0-----------||
--------3----------3----3---|--3-------3-------------||
--2------------------2------|--------2---------------||
-----4----------------------|-----4------------------||
----------------------------|------------------------||
----------------------------|------------------------||


Guitar 2

                             Q    Q    Q     Q     
E||-------|-------|-------|-----------------------|
B||-------|-------|-------|-----------------------|
G||-------|-------|-------|-----------------12----|
D||-------|-------|-------|-----------------------|
A||-------|-------|-------|-----------------------|
E||-------|-------|-------|-----------------------|


   Q.      E      E.   E.   E      E.   E.   E   Q.      E   
-------------------------------|----------------------------|
--15------15--15g17---15---13--|--12---13---15--------------|
-------------------------------|----------------12----------|
-------------------------------|------------------------12--|
-------------------------------|----------------------------|
-------------------------------|----------------------------|


   Q.      E   E.   E.   E      E.   E.   E   Q     Q     
----------------------------|------------15--15----17----|
--15------17--15---13---12--|--12---15-------------------|
----------------------------|----------------------------|
----------------------------|----------------------------|
----------------------------|----------------------------|
----------------------------|----------------------------|


   H.            Q        H         Q     Q        W                 
--19------------15----|------------15----19----|--17----------------|
----------------------|--15--------------------|--------------------|
----------------------|------------------------|--------------------|
----------------------|------------------------|--------------------|
----------------------|------------------------|--------------------|
----------------------|------------------------|--------------------|


   H.            Q        Q.      E      E.   E.   E   
---L------------------|-------------------------------|
----------------------|--15------15--15g17---15---13--|
----------------12----|-------------------------------|
----------------------|-------------------------------|
----------------------|-------------------------------|
----------------------|-------------------------------|


   E.   E.   E   Q.      E      Q.      E   E.   E.   E   
----------------------------|----------------------------|
--12---13---15--------------|--15------17--15---13---12--|
----------------12----------|----------------------------|
------------------------12--|----------------------------|
----------------------------|----------------------------|
----------------------------|----------------------------|


   E.   E.   E   Q     Q        H.            Q        H         Q     Q     
------------15--15----17----|--19------------15----|------------15----19----|
--12---15-------------------|----------------------|--15--------------------|
----------------------------|----------------------|------------------------|
----------------------------|----------------------|------------------------|
----------------------------|----------------------|------------------------|
----------------------------|----------------------|------------------------|


   W                    W                    E.   E.   E   E.   E.   E   
--17----------------|---L----------------|--15---14---15--17---15-------|
--------------------|--------------------|--------------------------12--|
--------------------|--------------------|------------------------------|
--------------------|--------------------|------------------------------|
--------------------|--------------------|------------------------------|
--------------------|--------------------|------------------------------|


   Q.      H         E      E.   E.   E   E.   E.   E   
--12--------------------|--15---14---15--17---15-------|
----------15--------12--|--------------------------12--|
------------------------|------------------------------|
------------------------|------------------------------|
------------------------|------------------------------|
------------------------|------------------------------|


   Q     S  T  T  H         E      E.   E.   E   E.   E.   E   
--12-----L-13-12---------------|---------------------10-------|
-----------------15------------|--12---10---12--13--------13--|
---------------------------12--|------------------------------|
-------------------------------|------------------------------|
-------------------------------|------------------------------|
-------------------------------|------------------------------|


   Q.      H         E      E.   E.   E   E.   E.   E   
------------------------|------------10--12----L---12--|
--12------10--------10--|--12---13---------------------|
------------------------|------------------------------|
------------------------|------------------------------|
------------------------|------------------------------|
------------------------|------------------------------|


   E.   E.   E   H            E.   E.   E   E.   E.   E   
--12---14---15--14--------|--15---14---15--17---15-------|
--------------------------|--------------------------12--|
--------------------------|------------------------------|
--------------------------|------------------------------|
--------------------------|------------------------------|
--------------------------|------------------------------|


   Q.      H         E      E.   E.   E   E.   E.   E   
--12--------------------|--15---14---15--17---15-------|
----------15--------12--|--------------------------12--|
------------------------|------------------------------|
------------------------|------------------------------|
------------------------|------------------------------|
------------------------|------------------------------|


   Q     S  T  T  H         E      E.   E.   E   E.   E.   E   
--12-----L-13-12---------------|---------------------10---12--|
-----------------15------------|--12---10---12--13------------|
---------------------------12--|------------------------------|
-------------------------------|------------------------------|
-------------------------------|------------------------------|
-------------------------------|------------------------------|


   E.   E.   E   E.   E.   E      W                    W                 
--12---14---15--14---12---11--|--12----------------|---L----------------|
------------------------------|--------------------|--------------------|
------------------------------|--------------------|--------------------|
------------------------------|--------------------|--------------------|
------------------------------|--------------------|--------------------|
------------------------------|--------------------|--------------------|


   W                    H        H          
--12----------------|---L-----------------||
--------------------|---------------------||
--------------------|---------------------||
--------------------|---------------------||
--------------------|---------------------||
--------------------|---------------------||
Login or Register to remove this ad.