Ads

Ronfaure (Final Fantasy XI) Guitar Tab

Submitted: Oct 03, 2008 by Binarynova (Last updated: May 11, 2014)

5
Average: 5 (8 votes)
Download | Listen
Game: Final Fantasy XI
Composer(s): Nobuo Uematsu, Kumi Tanioka, Naoshi Mizuta
Style: Arrangement, Fingerstyle
Series: Final Fantasy

Click here for a video example.

AutoScroll: Slow | Medium | Fast
Ronfaure                                 
Final Fantasy XI

Composed by: Nobuo Uematsu
Arranged by: Thomas Knight
Submitted: Sep. 28, 2008

Based on Aaron Morison's transcription.

Standard Tuning
bpm=88



     E.  S E  E  Q    E  E     Q    Q    Q    E  E     E.  S E  E   Q    E  E   
E||--0-----0--2--3----0--3--|--2---------0----3--5--|--7---5-7--8--10----8--7--|
B||------3-------1----------|--3----3----1----------|--0-----------------------|
G||--4-----------0----------|-----------------------|--0------------7----------|
D||--2-----------2----------|--4---------2----------|---------------7----------|
A||-------------------------|-----------------------|--------------------------|
E||-------------------------|-----------------------|--------------------------|


  Q    Q    H           E.  S E  E  Q    E  E     Q    Q    Q    E  E   
--5----8----7--------|--0-----0--2--3----0--3--|--2---------0----------|
--3----7----0--------|------3-------1----------|--3----3----1----3--1--|
--2------------------|--4-----------0----------|-----------------------|
--0------------------|--2-----------2----------|--4---------2----------|
-------6----7--------|-------------------------|-----------------------|
---------------------|-------------------------|-----------------------|


  E.  S E  E  E  E  E  E     Q    S S E  H           Q    S S E  H         
--------------------2--3--|--0----2-0----0--------|--0----2-0----0--------|
--0-----0--1-----3--------|--0----3---3--0--------|--0----3---3--0--------|
--0---2-------2-----------|--0----2------0--------|--0----2------0--------|
--------------0-----------|--2----0------2--------|--2----0------2--------|
--------------------------|-----------------------|-----------------------|
--3-----------------------|-----------------------|-----------------------|


  E.  S E  E  Q    E  E     Q    Q    Q    E  E     E.  S E  E   Q    E  E   
--0-----0--2--3----0--3--|--2---------0----3--5--|--7---5-7--8--10----8--7--|
------3-------1----------|--3----3----1----------|--0-----------------------|
--4-----------0----------|-----------------------|--0------------7----------|
--2-----------2----------|--4---------2----------|---------------7----------|
-------------------------|-----------------------|--------------------------|
-------------------------|-----------------------|--------------------------|


  Q    Q    H           E.  S E  E  Q    E  E     Q    Q    Q    E  E   
--5----8----7--------|--0-----0--2--3----0--3--|--2---------0----------|
--3----7----0--------|------3-------1----------|--3----3----1----3--1--|
--2------------------|--4-----------0----------|-----------------------|
--0------------------|--2-----------2----------|--4---------2----------|
-------6----7--------|-------------------------|-----------------------|
---------------------|-------------------------|-----------------------|


  E.  S E  E  E  E  E  E     Q    S S E  H           Q.     S S S S S S E  E   
--------------------2--3--|--0----2-0----0--------|---------------------------|
--0-----0--1-----3--------|--0----3---3--0--------|-----------------0-1-3--0--|
--0---2-------2-----------|--0----2------0--------|-------------0-2-----------|
--------------0-----------|--2----0------2--------|---------2-4---------------|
--------------------------|-----------------------|---------------------------|
--3-----------------------|-----------------------|--0------------------------|


  W                   Q.     S S S S S S E  E     W                 
--0----------------|------------------------2--|--3----------------|
--1----------------|-----------------0-1-3-----|--1----------------|
--0----------------|-------------0-2-----------|--0----------------|
-------------------|---------2-4---------------|-------------------|
-------------------|---------------------------|-------------------|
--3----------------|--0------------------------|--3----------------|


  Q.     S S S S S S E  E     W                   Q.     S S S S S S E  E   
---------------------------|--0----------------|------------------------2--|
-----------------0-1-3--0--|--1----------------|-----------------0-1-3-----|
-------------0-2-----------|--0----------------|-------------0-2-----------|
---------2-4---------------|-------------------|---------2-4---------------|
---------------------------|-------------------|---------------------------|
--0------------------------|--3----------------|--0------------------------|


  W                   E.  S E  E  Q    E  E     Q    Q    Q    E  E   
--3----------------|--0-----0--2--3----0--3--|--2---------0----3--5--|
--1----------------|------3-------1----------|--3----3----1----------|
--0----------------|--4-----------0----------|-----------------------|
-------------------|--2-----------2----------|--4---------2----------|
-------------------|-------------------------|-----------------------|
--3----------------|-------------------------|-----------------------|


  E.  S E  E   Q    E  E     Q    Q    H           E.  S E  E  Q    E  E   
--7---5-7--8--10----8--7--|--5----8----7--------|--0-----0--2--3----0--3--|
--0-----------------------|--3----7----0--------|------3-------1----------|
--0------------7----------|--2------------------|--4-----------0----------|
---------------7----------|--0------------------|--2-----------2----------|
--------------------------|-------6----7--------|-------------------------|
--------------------------|---------------------|-------------------------|


  Q    Q    Q    E  E     E.  S E  E  E  E  E  E     Q    S S E  H         
--2---------0----------|--------------------2--3--|--0----2-0----0--------|
--3----3----1----3--1--|--0-----0--1-----3--------|--0----3---3--0--------|
-----------------------|--0---2-------2-----------|--0----2------0--------|
--4---------2----------|--------------0-----------|--2----0------2--------|
-----------------------|--------------------------|-----------------------|
-----------------------|--3-----------------------|-----------------------|


  E.  S E  E  Q    E  E     Q    Q    Q    E  E     E.  S E  E   Q    E  E   
--0-----0--2--3----0--3--|--2---------0----3--5--|--7---5-7--8--10----8--7--|
------3-------1----------|--3----3----1----------|--0-----------------------|
--4-----------0----------|-----------------------|--0------------7----------|
--2-----------2----------|--4---------2----------|---------------7----------|
-------------------------|-----------------------|--------------------------|
-------------------------|-----------------------|--------------------------|


  Q    Q    H           E.  S E  E  Q    E  E     Q    Q    Q    E  E   
--5----8----7--------|--0-----0--2--3----0--3--|--2---------0----------|
--3----7----0--------|------3-------1----------|--3----3----1----3--1--|
--2------------------|--4-----------0----------|-----------------------|
--0------------------|--2-----------2----------|--4---------2----------|
-------6----7--------|-------------------------|-----------------------|
---------------------|-------------------------|-----------------------|


  E.  S E  E  E  E  E  E     Q    S S E  H           E.  S E  E   E.  S E  E   
--------------------2--3--|--0----2-0----0--------|--7---5-7--8--10-----8--7--|
--0-----0--1-----3--------|--0----3---3--0--------|---------------------------|
--0---2-------2-----------|--0----2------0--------|--0---0-L------0---0-L-----|
--------------0-----------|--2----0------2--------|---------------------------|
--------------------------|-----------------------|---------------------------|
--3-----------------------|-----------------------|---------------------------|


  E.  S Q    E.  S Q       E.  S E  E  E.  S E  E     E.  S Q    E.  S Q     
--5---------------------|--3---2-3--5--7-----5--3--|--2----------0-----2----|
--------3---------------|--------------------------|--------3---------------|
-------------2-----5----|--------------------------|------------------------|
--0---0-L----0---0-4----|--2---2-L-----------------|------------------------|
------------------------|--------------7---7-L-----|--2---2-L----2---2-L----|
------------------------|--------------------------|------------------------|


  E.  S Q    E.  S Q       E.  S Q    E.  S Q       E.  S Q    E.  S Q     
--3-----0----3-----8----|--7---------------------|--------0----2-----3----|
------------------------|------8-----------------|------------------------|
------------------------|--------7---------------|------------------------|
------------------------|--5---5-L----5---5-0----|------------------------|
--3---3-L----3---3-L----|------------------------|--0---0-L----0---0-L----|
------------------------|------------------------|------------------------|


  E  S S Q    E.  S Q       E.  S Q    E.  S Q       E.  S Q    E.  S Q     
--5--7---7---------------|--------0----3-----8----|--7---------------------|
-------------------------|------------------------|------8-----------------|
-------------------------|------------------------|--------7---------------|
--0----0-L----0---0------|------------------------|--5---5-L----5---5-0----|
-------------------------|--3---3-L----3---3-L----|------------------------|
-------------------------|------------------------|------------------------|


  E.  S Q    E.  S Q       E  E  H.              W                 
--------5----------5----|--5--7--7------------|-------------------|
-------------7----------|--7-----7------------|-------------------|
------------------------|--7-----8------------|-------------------|
------------------------|---------------------|-------------------|
--0---0-L----0---0-L----|---------------------|-------------------|
------------------------|---------------------|-------------------|


  E.  S E  E  Q    E  E     Q    Q    Q    E  E     E.  S E  E   Q    E  E   
--0-----0--2--3----0--3--|--2---------0----3--5--|--7---5-7--8--10----8--7--|
------3-------1----------|--3----3----1----------|--0-----------------------|
--4-----------0----------|-----------------------|--0------------7----------|
--2-----------2----------|--4---------2----------|---------------7----------|
-------------------------|-----------------------|--------------------------|
-------------------------|-----------------------|--------------------------|


  Q    Q    H           E.  S E  E  Q    E  E     Q    Q    Q    E  E   
--5----8----7--------|--0-----0--2--3----0--3--|--2---------0----------|
--3----7----0--------|------3-------1----------|--3----3----1----3--1--|
--2------------------|--4-----------0----------|-----------------------|
--0------------------|--2-----------2----------|--4---------2----------|
-------6----7--------|-------------------------|-----------------------|
---------------------|-------------------------|-----------------------|


  E.  S E  E  E  E  E  E     Q    S S E  H           Q    S S E  H         
--------------------2--3--|--0----2-0----0--------|--0----2-0----0--------|
--0-----0--1-----3--------|--0----3---3--0--------|--0----3---3--0--------|
--0---2-------2-----------|--0----2------0--------|--0----2------0--------|
--------------0-----------|--2----0------2--------|--2----0------2--------|
--------------------------|-----------------------|-----------------------|
--3-----------------------|-----------------------|-----------------------|


  W                   W                   Q.     E  H         
-------------------|-------------------|---------------------|
-------------------|-------------------|--3------------------|
-------------------|-------------------|---------------------|
-------------------|-------------------|---------------------|
-------------------|-------------------|---------------------|
-------------------|-------------------|--0------0--0--------|


  Q.     E  Q    E  E     E.  S E  E  H           Q.     E  H         
-----------------------|-----------------------|---------------------|
-----------------0--3--|--2--------------------|---------------------|
-----------------------|------2-2--------------|---------------------|
-----------------------|-----------------------|---------------------|
-----------------------|-----------------------|---------------------|
--0------0--0----------|--0--------0--0--------|--0------0--0--------|


  Q.     E  H           Q.     E  Q    S S S S    E.  S E  E  Q    E.  S  
---------------------|-----------------------2-|--0----------------------|
--3------------------|-----------------0-2-3---|------2-2----------L---0-|
---------------------|-------------------------|-------------------------|
---------------------|-------------------------|-------------------------|
---------------------|-------------------------|-------------------------|
--0------0--0--------|--0------0--0------------|--0--------0--0----------|


  Q.     E  H           Q.     E  H           Q.     E  Q    E  E   
---------------------|---------------------|-----------------------|
---------------------|--3------------------|-----------------0--3--|
--2------------------|---------------------|-----------------------|
---------------------|---------------------|-----------------------|
---------------------|---------------------|-----------------------|
--0------0--0--------|--0------0--0--------|--0------0--0----------|


  E.  S E  E  H           Q.     E  Q    E  E     Q.     E  H         
-----------------------|-----------------------|--0------------------|
--2--------------------|-----------------0--3--|---------------------|
------2-2--------------|-----------------------|---------------------|
-----------------------|-----------------------|---------------------|
-----------------------|-----------------------|--3------3--3--------|
--0--------0--0--------|--0------0--0----------|---------------------|


  Q.     E  Q    S S S S    E.  S E  E  H           Q.     E  Q    E  E   
-----------------0---0-3-|--5---2-2--------------|--------------------2--|
-------------------3-----|-----------------------|-----------------3-----|
-------------------------|-----------------------|-----------------------|
-------------------------|-----------------------|-----------------------|
--3------3--3------------|--2--------2--2--------|--2------2--2----------|
-------------------------|-----------------------|-----------------------|


  Q.     E  H           Q.     E  Q    S S E     Q    S S S S S S S S S S S S  
--0------------------|-----------------2-0----|--0----0-------0-------0-------|
---------------------|---------------------3--|---------2-------2-------2-----|
---------------------|------------------------|-----------2-------2-------2---|
---------------------|-----------------0------|-------------2-------2-------2-|
--0------0--0--------|--3------3--3-----------|-------------------------------|
---------------------|------------------------|--0----------------------------|


  Q    S S S S S S S S S S E     Q    S S S S S S S S S S S S  
-----------------------2-0----|--0----0-------0-------0-------|
-------1-------1-----------3--|---------2-------2-------2-----|
---------0-------0------------|-----------2-------2-------2---|
-----------2-------2----------|-------------2-------2-------2-|
--3----------3-------3--------|-------------------------------|
------------------------------|--0----------------------------|


  Q    S S S S S S S S S S E     Q    S S S S S S S S S S S S  
-------0-----------0----------|--0----0-------0-------0-------|
---------1-------1---1---1----|---------2-------2-------2-----|
-----------0---0-------0---0--|-----------2-------2-------2---|
-------------2----------------|-------------2-------2-------2-|
--3---------------------------|-------------------------------|
------------------------------|--0----------------------------|


  Q    S S S S S S S S S S E     Q    S S S S S S S S S S S S  
-----------------------2-0----|--0----0-------0-------0-------|
-------1-------1-----------3--|---------2-------2-------2-----|
---------0-------0------------|-----------2-------2-------2---|
-----------2-------2----------|-------------2-------2-------2-|
--3----------3-------3--------|-------------------------------|
------------------------------|--0----------------------------|


  S S S S S S S S H           E.  S E  E  Q    E  E     Q    Q    Q    E  E   
---------------------------|--0-----0--2--3----0--3--|--2---------0----3--5--|
--1-------1-------1--------|------3-------1----------|--3----3----1----------|
----0-------0--------------|--4-----------0----------|-----------------------|
------2-------2---2--------|--2-----------2----------|--4---------2----------|
--------3-------3-3--------|-------------------------|-----------------------|
---------------------------|-------------------------|-----------------------|


  E.  S E  E   Q    E  E     Q    Q    H           E.  S E  E  Q    E  E   
--7---5-7--8--10----8--7--|--5----8----7--------|--0-----0--2--3----0--3--|
--0-----------------------|--3----7----0--------|------3-------1----------|
--0------------7----------|--2------------------|--4-----------0----------|
---------------7----------|--0------------------|--2-----------2----------|
--------------------------|-------6----7--------|-------------------------|
--------------------------|---------------------|-------------------------|


  Q    Q    Q    E  E     E.  S E  E  E  E  E  E     Q    S S E  H          
--2---------0----------|--------------------2--3--|--0----2-0----0--------||
--3----3----1----3--1--|--0-----0--1-----3--------|--0----3---3--0--------||
-----------------------|--0---2-------2-----------|--0----2------0--------||
--4---------2----------|--------------0-----------|--2----0------2--------||
-----------------------|--------------------------|-----------------------||
-----------------------|--3-----------------------|-----------------------||




Duration Legend
---------------
W - whole
H - half
Q - quarter
E - 8th
S - 16th
T - 32nd
X - 64th
. - note dotted
|-n-|  - n-tuplets


Tablature Legend
----------------
L - tied note
x - dead note
g - grace note
(n) - ghost note
> - accentuded note
NH - natural harmonic
AH - artificial harmonic
TH - tapped harmonic
SH - semi harmonic
PH - pitch harmonic
h - hammer on
p - pull off
b - bend
br - bendRelease
pb - preBend
pbr - preBendRelease
brb - bendReleaseBend
\n/ - tremolo bar dip
\n - tremolo bar dive
-/n - tremolo bar Release up
/n\ - tremolo bar inverted dip
/n - tremolo bar return
-\n - tremolo bar Release down
S - shift slide
s - legato slide
/ -  slide into from below or out of upwards
\ -  slide into from above or out of downwards
~ - vibrato
W - wide vibrato
tr - trill
TP - tremolo picking
T - tapping
S - slap
P - pop
< - fade in
^ - brush up
v - brush down
Login or Register to remove this ad.

6 comments on Ronfaure

Nice :)

5

Nice :)

Thank you!

Glad you liked it. Have fun! :)

Great!

12.75

Sounds really awesome... ^^

Thank you!

Thank you very much. ^^

Amazing

5

This has to be one of my favorite pieces from FFXI. And I still play. I committed this to memory and I play it for friends while they sit there mesmerized. That you for this amazing piece of work.

I'm glad you enjoy it and can

I'm glad you enjoy it and can play it for friends!

Thanks for the great comment. :)