Ads

The Cosmic Wheel (Final Fantasy XI) Guitar Tab

Submitted: Nov 30, 2008 by teri1337 (Last updated: Dec 29, 2009)

5
Average: 5 (5 votes)
Download | Listen
Game: Final Fantasy XI
Composer(s): Nobuo Uematsu, Kumi Tanioka, Naoshi Mizuta
Style: Arrangement, Fingerstyle
Series: Final Fantasy

Click here for a video example.

AutoScroll: Slow | Medium | Fast
The Cosmic Wheel                                                
~Final Fantasy XI~ (Sarutabaruta [s])
Composed by: Naoshi Mizuta
Arranged by: teri1337


Moderate  bpm=80


Track 1
      E  E  E  E  E  E  E  E     E  E  E  E  E  E  E  S  S  4x 
E||---------------------------|------------------------------||
B||---------------------------|------------------------------||
G||*--------2-----------2-----|--------0-----------0-------*-||
D||*-----2-----------2-----2--|-----0-----------0-----0h-2-*-||
A||---0--------2--3-----------|--2--------0------------------||
E||---------------------------|--------------3---------------||
 
 
  E  E  E  E  E  E  E  E       E  E  E  E  E  E  E  E   
--------------------------||---0-----5-----0-----------|
--------------------1--3--||---------------------3-----|
--------0-----------0--0--||*--------2-----------2-----|
-----0-----------0--------||*-----2-----------2-----2--|
--2--------0--------------||---0--------2--3-----------|
--------------3-----------||---------------------------|
 
 
  E  E  E  E  E  E  E  E     E  E  E  E  E  E  E  E   
--0-----3-----7-----8-----|--7-----5-----0-----------|
--------------------------|--------------------1-----|
--------0-----------0-----|--------------------2-----|
-----0-----------0-----0--|--------2--------2-----2--|
--2--------0--------------|-----7-----2--3-----------|
--------------3-----------|--5-----------------------|
 
 
  E  E  E  E  E  E  E  E     E  E  E  E  E  E  E  E   
--------------------------|--0-----5-----0-----------|
--3-----------------1--3--|--------------------3-----|
--------0-----------0--0--|--------2-----------2-----|
-----0-----------0--------|-----2-----------2-----2--|
--2--------0--------------|--0--------2--3-----------|
--------------3-----------|--------------------------|
 
 
  E  E  E  E   E  E   E  E     E  E  E  E  E  E  E  E   
--0-----3-----10-----12-----|--8-----7--5--3-----0-----|
----------------------------|--------------------------|
--------0-------------0-----|--------------------2-----|
-----0------------0------0--|--------7--------2-----2--|
--2--------0----------------|-----7-----2--3-----------|
---------------7------------|--5-----------------------|
 
 
    E  E  E  E  E  E  E  S  S    E  E  E  E  E  E  E  E   
--4g5-------------------------|--------5-----3--0--------|
------------------------------|--------------------1-----|
----------0-----------0-------|--------2-----------0-----|
-------0-----------0-----0h-2-|-----2-----------2-----2--|
----2--------0----------------|--0--------2--3-----------|
----------------3-------------|--------------------------|
 
 
  E  E  E  E  E  E  E  S  S    E  E  E  E  E  E  E  E   
----------------------------|--------5-----3--0--------|
--3--------1--3-------------|--------------------1-----|
--------0-----------0-------|--------2-----------0-----|
-----0-----------0-----0h-2-|-----2-----------2-----2--|
--2--------0----------------|--0--------2--3-----------|
--------------3-------------|--------------------------|
 
 
  E  E  E  E  E  E  E  S  S    E  E  E  E  E  E  E  E   
-----------3----------------|--------5-----3--0--------|
--3-----------3-------------|--------------------1-----|
--------0-----------0-------|--------2-----------0-----|
-----0-----------0-----0h-2-|-----2-----------2-----2--|
--2--------0----------------|--0--------2--3-----------|
--------------3-------------|--------------------------|
 
 
  E  E  E  E  E  E  E  S  S    E  E  E  E  E  E  E  E   
----------------------------|--------5-----3--0--------|
--3--------1--3-------------|--------------------1-----|
--------0-----------0-------|--------2-----------0-----|
-----0-----------0-----0h-2-|-----2-----------2-----2--|
--2--------0----------------|--0--------2--3-----------|
--------------3-------------|--------------------------|
 
 
  E  E  E  E  E  E  E  E         E  E  E  E  E  E  E  E   
-----------3--7-------------||---------------------------|
--3-----------------1--3----||---------------------------|
--------0-----------0--0--*-||*--------2-----------2-----|
-----0-----------0--------*-||*-----2-----2-----2-----2--|
--2--------0----------------||---3-----------3-----------|
--------------3-------------||---------------------------|
 
 
  E  E  E  E  E  E  E  E         E  E  E  E  E  E  Q     
----------------------------||--------------------------|
----------------------------||---------------0----------|
--------0-----------0-----*-||*--------1--2-------------|
-----0-----0-----0-----0--*-||*--------2-----------2----|
--1-----------1-------------||------2-----------2-------|
----------------------------||---0-----------0----------|
 
 
  E  E  E  E  E  E  E  E     E  E  E  E  E  E  Q     
--------------------------|-------------------------|
--1-----3--1--0-----------|--------------0----------|
--------2--------------1--|--------1--2-------------|
-----2--------------2-----|--------2-----------2----|
--0--------------2--------|-----2-----------2-------|
--------------0-----------|--0-----------0----------|
 
 
  E  E  E  E  E  E  E  E        H.            E  E   
--0-------------------------||--0-------------------|
--------3--1--0-------------||--0------------10--9--|
--------2--------------1--*-||----------------------|
-----2--------------2-----*-||----------------------|
--0--------------2----------||----------------------|
--------------0-------------||----------------------|
 
 
     E   E  E   E  E   E   E  E      E   E   E   E   E   E   E  E   
|------------------9-------------|------------------10-------------|
|---10---------10---------10--9--|--10----------10----------10--9--|
|*----------9--------------9-----|----------11--------------11-----|
|*------11------------11---------|------12--------------12---------|
|----0---------------------------|---0-----------------------------|
|--------------------------------|---------------------------------|
 
 
   E   E   E   E   E   E   E   E     E  E  E   E   E   E   E   E   
-------------------9--------------|---------------------------12--|
--10------10--12----------12--10--|--9--------12--10------10------|
------11----------11--11----------|--------9---------------9------|
--11------------------------------|-----9-------------11----------|
----------------------------------|----------------0--------------|
----------------------------------|--0----------------------------|
 
 
   E   E   E   E   E   E   E  E      E  E  E   E  E  E   E  E   
--12----------12----------10--9--|--12--------12--------10--9--|
----------10---------------------|-------------9---------9-----|
------11--------------11---------|---------9---------9---------|
--11--------------11-------------|------9---------9------------|
---------------------------------|-----------------------------|
---------------------------------|---0-------------------------|
 
 
   E  E   E   E  E   E   E  E      E   E   E   E   E  E   E  E      
-----------------9-------------|----------------------------------||
--12-----10--12---------10-----|----------12------10-----10--9----||
----------9--------------9--9--|--11------11--------------9-----*-||
------9-------------11---------|------12------12------9---------*-||
-----------------0-------------|---0------------------------------||
---0---------------------------|-------------------0--------------||
 
 
  E  E  E  E  E  E  E  E     E  E  E  E  E  E  E  S  S  
--5-----5-----3--0--------|----------------------------|
--------------------1-----|--3--------1--3-------------|
--------2-----------0-----|--------0-----------0-------|
-----2-----------2-----2--|-----0-----------0-----0h-2-|
--0--------2--3-----------|--2--------0----------------|
--------------------------|--------------3-------------|
 
 
  E  E  E  E  E  E  E  E     E  E  E  E  E  E  E  S  S  
--------5-----3--0--------|-----------3----------------|
--------------------1-----|--3-----------3-------------|
--------2-----------0-----|--------0-----------0-------|
-----2-----------2-----2--|-----0-----------0-----0h-2-|
--0--------2--3-----------|--2--------0----------------|
--------------------------|--------------3-------------|
 
 
  E  E  E  E  E  E  E  E     E  E  E  E  E  E  E  S  S  
--------5-----3--0--------|----------------------------|
--------------------1-----|--3--------1--3-------------|
--------2-----------0-----|--------0-----------0-------|
-----2-----------2-----2--|-----0-----------0-----0h-2-|
--0--------2--3-----------|--2--------0----------------|
--------------------------|--------------3-------------|
 
 
  E  E  E  E  E  E  E  E     E  E  E  E  E  E  E  E   
--------5-----3--0--------|-----------3--7-----------|
--------------------1-----|--3-----------------1--3--|
--------2-----------0-----|--------0-----------0--0--|
-----2-----------2-----2--|-----0-----------0--------|
--0--------2--3-----------|--2--------0--------------|
--------------------------|--------------3-----------|
 
 
  E  E  E  E  E  E  E  E     E  E  E  E  E  E  E  E   
--0-----5-----0-----------|--0-----3-----7-----8-----|
--------------------3-----|--------------------------|
--------2-----------2-----|--------0-----------0-----|
-----2-----------2-----2--|-----0-----------0-----0--|
--0--------2--3-----------|--2--------0--------------|
--------------------------|--------------3-----------|
 
 
  E  E  E  E  E  E  E  E     E  E  E  E  E  E  E  E   
--7-----5-----0-----------|--------------------------|
--------------------1-----|--3-----------------1--3--|
--------------------2-----|--------0-----------0--0--|
--------2--------2-----2--|-----0-----------0--------|
-----7-----2--3-----------|--2--------0--------------|
--5-----------------------|--------------3-----------|
 
 
  E  E  E  E  E  E  E  E     E  E  E  E   E  E   E  E   
--0-----5-----0-----------|--0-----3-----10-----12-----|
--------------------3-----|----------------------------|
--------2-----------2-----|--------0-------------0-----|
-----2-----------2-----2--|-----0------------0------0--|
--0--------2--3-----------|--2--------0----------------|
--------------------------|---------------7------------|
 
 
  E  E  E  E  E  E  E  E       E  E  E  E  E  E  E  S  S  
--8-----7--5--3-----0-----|--4g5-------------------------|
--------------------------|------------------------------|
--------------------2-----|----------0-----------0-------|
--------7--------2-----2--|-------0-----------0-----0h-2-|
-----7-----2--3-----------|----2--------0----------------|
--5-----------------------|----------------3-------------|
 
 
    E  E  E  E  E  E  E  E     E  E  E  E  E  E  E  S  S  4x 
|---------------------------|------------------------------||
|---------------------------|------------------------------||
|*--------2-----------2-----|--------0-----------0-------*-||
|*-----2-----------2-----2--|-----0-----------0-----0h-2-*-||
|---0--------2--3-----------|--2--------0------------------||
|---------------------------|--------------3---------------||
 
 
                             ^                  
  E  E  E  E  E  E  E  E     W                  
--------------3-----7--3--|--5----------------||
--------3--------3--------|--5----------------||
-----------4--------------|--5----------------||
--------5-----------------|--7----------------||
-----5--------------------|--7----------------||
--3-----------------------|--5----------------||
 
 
 
 
Duration Legend
---------------
W - whole
H - half
Q - quarter
E - 8th
S - 16th
T - 32nd
X - 64th
. - note dotted
|-n-|  - n-tuplets
 
 
Tablature Legend
----------------
g - grace note
h - hammer on
p - pull off
^ - brush up
v - brush down
Login or Register to remove this ad.

1 comment on The Cosmic Wheel

awesome! I've been starved

awesome! I've been starved for good new acoustic arrangementd in the past few months.