Ads

The Kingdom of San d'Oria (Final Fantasy XI) Guitar Tab

Submitted: Jan 17, 2008 by Kabukibear (Last updated: Sep 26, 2009)

4.636365
Average: 4.6 (22 votes)
Download | Listen
Game: Final Fantasy XI
Composer(s): Nobuo Uematsu, Kumi Tanioka, Naoshi Mizuta
Style: Arrangement, Fingerstyle
Series: Final Fantasy

This song is also called While San d'Oria Sleeps

AutoScroll: Slow | Medium | Fast
While San d'Oria Sleeps (The Kingdom of San d'Oria)                             
~Final Fantasy XI~
Composed by: Naoshi Mizuta
Arranged by: Justin Lincoln


Tenderly  bpm=90

     E  E  E  E  E  E  E  E     E  E  E  E  E  E  E  E   
E||--------0-----------------|--------------------------|
B||--------------3-----1-----|--------0-----0-----3-----|
G||-----0-----0-----0-----0--|-----0-----0-----0-----0--|
D||--------------------------|--------------------------|
A||--3-----------------------|--3-----------------------|
E||--------------------------|--------------------------|


  E  E  E  E  E  E  E  E     E  E  E  E  E  E  E  E   
--------------0-----3-----|--------3-----5-----0-----|
--------3-----------------|-----------------------3--|
-----0-----0-----0-----0--|-----0-----0-----0--------|
--------------------------|--------------------------|
--3-----------------------|--3-----------------------|
--------------------------|--------------------------|


  E  E  E  E  E  E  E  E     E  E  E  E  E  E  E  E   
--------0-----------------|--------------------------|
--------------3-----1-----|--------1-----3-----0-----|
-----0-----0-----0-----0--|-----0-----0-----0-----0--|
--------------------------|--------------------------|
--3-----------------------|--3-----------------------|
--------------------------|--------------------------|


  E  E  E  E  E  E  E  E     E  E  E  E  Q    E  E   
--------------0-----1-----|--0----------------0--1--|
--------3-----------------|--------0-----1----------|
-----0-----0-----0-----0--|-----0-----0-------------|
--------------------------|-------------------------|
--3-----------------------|--3----------------------|
--------------------------|-------------------------|


    E  E  E  E  E  E  E  E     E  E  E  E  E  E  E  E   
|---3-----------5--3--1-----|--3-----------------0--1--|
|---------1-----------------|--------1-----------------|
|*-----0-----0-----------0--|-----0-----0-----0--------|
|*--------------------------|--------------------------|
|---3-----------2-----------|--0-----------------------|
|---------------------------|--------------3-----------|


  E  E  E  E  E  E  E  E     E  E  E  E  E  E  E  E   
--3-----------------------|--0-----------------0--1--|
--------1-----3--1--3-----|--------1-----------------|
-----0-----0-----------0--|-----0-----0-----0--------|
--------------------------|--------------2-----------|
--------------------2-----|--3-----------------------|
--1-----------3-----------|--------------------------|


  E  E  E  E  E  E  E  E     E  E  E  E  E  E  E  E   
--3-----------5--3--0-----|--0-----8-----3-----------|
--------1--------------3--|--------------------3-----|
-----0-----0--------------|-----0-----0-----0-----0--|
--3-----------------------|--------------------------|
--------------------------|--0-----------2-----------|
--------------0--------0--|--------------------------|


  E  E  E  E  E  E  E  E     E  E  E  E  E  E  E  E   
--------------1--0--------|--0-----------------0--1--|
--1-----1--3--------3--1--|--------3-----------------|
-----0--------------------|-----0-----0-----0--------|
--------------------------|--------------------------|
--------------------------|--------------2-----------|
--0-----------1-----------|--3-----------------------|


  E  E  E  E  E  E  E  E     E  E  E  E  E  E  E  E   
--3-----------5--3--1-----|--3-----------------0--1--|
--------1-----------------|--------1-----------------|
-----0-----0-----------0--|-----0-----0-----0--------|
--------------------------|--------------------------|
--3-----------2-----------|--0-----------------------|
--------------------------|--------------3-----------|


  E  E  E  E  E  E  E  E     E  E  E  E  E  E  E  E   
--3-----------------------|--0-----------------0--1--|
--------1-----3--1--3-----|--------1-----------------|
-----0-----0-----------0--|-----0-----0-----0--------|
--------------------------|--------------2-----------|
--------------------2-----|--3-----------------------|
--1-----------3-----------|--------------------------|


  E  E  E  E  E  E  E  E     E  E  E  E  E  E  E  E   
--3-----------5--3--0-----|--0-----8-----3-----------|
--------1--------------3--|--------------------3-----|
-----0-----0--------------|-----0-----0-----0-----0--|
--3-----------------------|--------------------------|
--------------------------|--0-----------2-----------|
--------------0--------0--|--------------------------|

                                                        1st Ending------------
  E  E  E  E  E  E  E  E     E  E  E  E  E  E  E  E     Q    E  E  E  E  E  E   
--------------1--0--------|--0-----------------------|-------------------------|
--1-----1--3--------3--1--|--------3-----------0--1--|--1----------------0--1--|
-----0--------------------|-----0-----0-----0--------|--0----0--------0--------|
--------------------------|--------------------------|-------------------------|
--------------------------|--------------2-----------|-------------------------|
--0-----------1-----------|--3-----------------------|--0-------0--1-----------|


                            ^                       
  Q    E  E  E  E  E  E     Q    E  E  E  E  E  E   
-------0-----------------|--3----------------------|
--3----------------1--3--|--1----1-----------0--1--|
--0-------------0--------|--0-------------0--------|
-------------------------|-------------------------|
-------------0-----------|-------------------------|
--3-------3--------------|--0-------0--1-----------|


                 |-3-|                                    
  E  E  E  E  E  S S S E  E     E.  S  E  E  E  E  E  E   
--1--0-----------------------|--3---3S-5-----------------|
--0-----3--1--L--1-3-1-0--1--|--1---1-----1--------0--1--|
--0--------0--L--------------|--0---0-----------0--------|
-----------------------------|---------------------------|
-----------0--L--------------|---------------------------|
--3--------------------------|--0---------0--1-----------|


  3    3 3    3      |-3-|                        |-3-|            
  Q    S Q    E.  E  S S S E  E     S S S S E  E  S S S E  S S E   
---------3----1---L--0-1-0-------|------0-1-3--3--1-3-1-0---------|
--3----L------1---L--------3--1--|--1-3--------------------3-1-0--|
--0----L------0---L--------------|--------------------------------|
--0----L-------------------------|--------------------------------|
--------------0---L--------------|--------------------------------|
--3----L-------------------------|--0----------1-----------1------|

                               2nd Ending-------------
  E.  S E  E  E  E  E  E       E  E  E  E  E  E  E  E   
--------------------0--1---||-----------------------1--|
--1---1-3--0---------------||--1-----1--3--------3-----|
--0---0----0-----0--------*||-----0-----------0--------|
--------------------------*||--------------------------|
---------------------------||--------------------------|
--3-----------3------------||--0-----------1-----------|


  E  E  E  E  E  E  E  E     E  E  E  E  E  E  E  E   
--1--------0--------------|-----------------------5--|
--------0-----------1--3--|--1-----1--3--------3-----|
-----0-----------0--------|-----0-----------0--------|
--------------------------|--------------------------|
--------------0-----------|--------------------------|
--3-----------------------|--0-----------1-----------|


                                            |-3-|        
  E  E  E  E  E  E  E  E     E  E  E  E  E  S S S E  E   
--5-----0--3--------0--3--|--8-----3-----1--0-1-0-------|
--------------------------|-----------------------3--1--|
-----0-----------0--------|-----0-----0-----------------|
--------------------------|-----------------------------|
--3-----------2-----------|--0--------------------------|
--------------------------|--------------3--------------|

                            Rit. - - - - - - - - - - - - - - - - - -
  E  E  E  E  Q    E  E     E  E  E  E  Q    Q       E  E  E  E  H         
--3--1--0----------------|-----------0--L----1----|--------------3--------|
--0--------1--L----0--1--|--1-----1---------------|--3-----0--3-----------|
--0--------0--L----------|-----1------------------|-----0-----------------|
-----------2--L----------|------------------------|-----------------------|
-----------0--L----------|------------------------|-----------------------|
--1----------------------|--1---------------------|--3--------------------|

  A Tempo
  E  E  E  E  E  E  E  E     E  E  E  E  E  E  E  E   
--------0-----------------|--------------------------|
--------------3-----1-----|--------0-----0-----3-----|
-----0-----0-----0-----0--|-----0-----0-----0-----0--|
--------------------------|--------------------------|
--3-----------------------|--3-----------------------|
--------------------------|--------------------------|


  E  E  E  E  E  E  E  E     E  E  E  E  E  E  E  E   
--------------0-----3-----|--------3-----5-----0-----|
--------3-----------------|-----------------------3--|
-----0-----0-----0-----0--|-----0-----0-----0--------|
--------------------------|--------------------------|
--3-----------------------|--3-----------------------|
--------------------------|--------------------------|

  Rit. - - - - - - - - - - - - - - - - - - - - - - - 
  E  E  E  E  E  E  E  E     E  E  E  E  E  E  E  E   
--------0-----------------|--------------------------|
--------------3-----1-----|--------1-----3-----0-----|
-----0-----0-----0-----0--|-----0-----0-----0-----0--|
--------------------------|--------------------------|
--3-----------------------|--3-----------------------|
--------------------------|--------------------------|

 - - - - - - - - - - - - - - -
                             ^                  
  E  E  E  E  E  E  E  E     W                  
--------------0-----1-----|--0----------------||
--------3-----------------|--0----------------||
-----0-----0-----0-----0--|--2----------------||
--------------------------|--0----------------||
--3-----------------------|--3----------------||
--------------------------|-------------------||




Duration Legend
---------------
W - whole
H - half
Q - quarter
E - 8th
S - 16th
T - 32nd
X - 64th
. - note dotted
|-n-|  - n-tuplets


Tablature Legend
----------------
L - tied note
s - legato slide
v - brush down
Rit. - Gradually slow down
A Tempo - The tempo you started the piece with, in this case 90 bpm

Login or Register to remove this ad.

8 comments on The Kingdom of San d'Oria

what a lovely song! thanks

what a lovely song! thanks

Man KABUKI! I'M GONNA GET

Man KABUKI!
I'M GONNA GET BETTER THAN YOU ONE DAY!
YOU BRING ON THE TABS, I'LL PLAY THEM JUST AS GOOD! Hahah

i LOVE this song, this is

5

i LOVE this song, this is perfect to learn to warmup for class this semester, thank you as always man!

^_^

Shweet. its awsome. always reminds me of my gf. lol

Question

Is there anyone who have a guitar pro tab for this one, or is there even one out there? Want to shape my rythm some :P

Answer

Uh, just click on "Download".... Kabukibear always includes the gp5 file in his zips.

how could i have missed this

5

how could i have missed this one kabuki this HAS to be my favorite

"Tenderly."

ending

That ending is awk. I play

^
1-0----
----3-1
------0
-------
------0
3------

I know nothing about music theory tho