Ads

Mog House (Final Fantasy XI) Guitar Tab

Submitted: Jan 01, 2008 by DSheltonator (Last updated: Jan 01, 2008)

5
Average: 5 (1 vote)
Download | Listen
Game: Final Fantasy XI
Composer(s): Nobuo Uematsu, Kumi Tanioka, Naoshi Mizuta
Style: Arrangement
Series: Final Fantasy

AutoScroll: Slow | Medium | Fast
                                  Mog House                                     


                               Tabbed by DSheltonator (czethros.livejournal.com)
Track 1

Capo 1st Fret

     Play the frets normally. The "1" is an open string           
     ^                                                  ^         
     H                                                  H         
E||--------------------------------------------------------------|
B||--2--------------------------------------------------4--------|
G||--1--------------------------------------------------3--------|
D||--3--------------------------------------------------4--------|
A||--4--------------------------------------------------4--------|
D||--------------------------------------------------------------|


  ^                   ^        ^           ^    ^             
  W                   H        H           Q    H.            
-------------------|--------------------|--------------------|
--6----------------|-----------1--------|--1----2------------|
--5----------------|--3--------1--------|--1----1------------|
--6----------------|--4--------1--------|--1----3------------|
--4----------------|--4--------4--------|--4----4------------|
-------------------|--------------------|--------------------|


  ^        ^           ^                   ^        ^         
  H        H           W                   H        H         
--------------------|-------------------|--------------------|
--2--------4--------|--6----------------|-----------1--------|
--1--------3--------|--5----------------|--3--------2--------|
--3--------4--------|--6----------------|--4--------1--------|
--4--------4--------|--4----------------|--4--------4--------|
--------------------|-------------------|--------------------|


  ^    ^               ^        ^           ^                 
  Q    H.              H        H           W                 
--------------------|--------------------|-------------------|
--1----2------------|--2--------4--------|--6----------------|
--2----1------------|--1--------3--------|--5----------------|
--1----3------------|--3--------4--------|--6----------------|
--4----4------------|--4--------4--------|--4----------------|
--------------------|--------------------|-------------------|


  ^        ^           ^    ^               ^        ^         
  H        H           Q    H.              H        H         
--------------------|--------------------|--------------------|
-----------1--------|--1----2------------|--2--------4--------|
--3--------1--------|--1----1------------|--1--------3--------|
--4--------1--------|--1----3------------|--3--------4--------|
--4--------4--------|--4----4------------|--4--------4--------|
--------------------|--------------------|--------------------|


  ^                   ^        ^           ^    ^             
  W                   H        H           Q    H.            
-------------------|--------------------|--------------------|
--6----------------|-----------1--------|--1----2------------|
--5----------------|--3--------2--------|--2----1------------|
--6----------------|--4--------1--------|--1----3------------|
--4----------------|--4--------4--------|--4----4------------|
-------------------|--------------------|--------------------|


  ^        ^           ^                   ^        ^         
  H        H           W                   H        H         
--------------------|-------------------|--------------------|
--2--------4--------|--6----------------|-----------1--------|
--1--------3--------|--5----------------|--3--------1--------|
--3--------4--------|--6----------------|--4--------1--------|
--4--------4--------|--4----------------|--4--------4--------|
--------------------|-------------------|--------------------|


  ^    ^               ^         ^           ^                 
  Q    H.              H         H           W                 
--------------------|---------------------|-------------------|
--1----2------------|---------------------|-------------------|
--1----1------------|---------------------|-------------------|
--1----3------------|--8--------10--------|--8----------------|
--4----4------------|--8---------8--------|--8----------------|
--------------------|--8---------7--------|--6----------------|


  ^        ^           ^    ^               ^        ^         
  H        H           Q    H.              H        H         
--------------------|--------------------|--------------------|
--2--------1--------|--1----2------------|--2--------4--------|
--3--------1--------|--1----3------------|--1--------3--------|
--4--------1--------|--1----3------------|--3--------4--------|
--------------------|--1----1------------|--4--------4--------|
--4--------6--------|--------------------|--------------------|


  ^                   ^        ^           ^    ^             
  W                   H        H           Q    H.            
-------------------|--------------------|--------------------|
--6----------------|-----------1--------|--1----2------------|
--5----------------|--3--------1--------|--1----1------------|
--6----------------|--4--------1--------|--1----3------------|
--4----------------|--4--------4--------|--4----4------------|
-------------------|--------------------|--------------------|


  ^        ^           ^                   ^        ^         
  H        H           W                   H        H         
--------------------|-------------------|--------------------|
--2--------4--------|--6----------------|-----------1--------|
--1--------3--------|--5----------------|--3--------2--------|
--3--------4--------|--6----------------|--4--------1--------|
--4--------4--------|--4----------------|--4--------4--------|
--------------------|-------------------|--------------------|


  ^    ^               ^        ^           ^                 
  Q    H.              H        H           W                 
--------------------|--------------------|-------------------|
--1----2------------|--2--------4--------|--6----------------|
--2----1------------|--1--------3--------|--5----------------|
--1----3------------|--3--------4--------|--6----------------|
--4----4------------|--4--------4--------|--4----------------|
--------------------|--------------------|-------------------|


  ^        ^           ^    ^               ^        ^         
  H        H           Q    H.              H        H         
--------------------|--------------------|--------------------|
-----------1--------|--1----2------------|--2--------4--------|
--3--------1--------|--1----1------------|--1--------3--------|
--4--------1--------|--1----3------------|--3--------4--------|
--4--------4--------|--4----4------------|--4--------4--------|
--------------------|--------------------|--------------------|


  ^                   ^        ^           ^    ^             
  W                   H        H           Q    H.            
-------------------|--------------------|--------------------|
--6----------------|-----------1--------|--1----2------------|
--5----------------|--3--------2--------|--2----1------------|
--6----------------|--4--------1--------|--1----3------------|
--4----------------|--4--------4--------|--4----4------------|
-------------------|--------------------|--------------------|


  ^        ^           ^                   ^        ^         
  H        H           W                   H        H         
--------------------|-------------------|--------------------|
--2--------4--------|--6----------------|-----------1--------|
--1--------3--------|--5----------------|--3--------1--------|
--3--------4--------|--6----------------|--4--------1--------|
--4--------4--------|--4----------------|--4--------4--------|
--------------------|-------------------|--------------------|


  ^    ^               ^        ^           ^                 
  Q    H.              H        H           W                 
--------------------|--------------------|-------------------|
--1----2------------|--------------------|-------------------|
--1----1------------|-----------4--------|--3----------------|
--1----3------------|--8--------4--------|--3----------------|
--4----4------------|--8-----------------|--1----------------|
--------------------|--8--------6--------|--4----------------|


  ^        ^           ^    ^                                      
  H        H           Q    H.              Q    E  Q    E  E  E   
--------------------|--------------------|------------------------|
--2--------1--------|--1----2------------|---------------2--------|
--3--------1--------|--1----3------------|------------------3-----|
--4--------1--------|--1----3------------|----------1----------1--|
--------------------|--1----1------------|-------2----------------|
--1--------3--------|--------------------|--6---------------------|


  Q    E  Q    E  E  E     Q    E  Q    E  E  E     Q    E  Q    E  E  E   
------------------------|------------------------|------------------------|
---------------2--------|---------------2--------|---------------2--------|
------------------3-----|------------------3-----|------------------3-----|
--1-------1----------1--|----------1----------1--|--1-------1----------1--|
-------2----------------|-------2----------------|-------2----------------|
------------------------|--6---------------------|------------------------|


  Q    E  Q    E  E  E     Q    E  Q    E  E  E     Q    E  Q    E  E  E   
------------------------|------------------------|------------------------|
---------------2--------|---------------2--------|---------------2--------|
------------------3-----|------------------3-----|------------------3-----|
----------3----------3--|--3-------3----------3--|----------3----------3--|
-------4----------------|-------4----------------|-------4----------------|
--1---------------------|------------------------|--1---------------------|


  Q    E  Q    E  E  E     Q    E  Q    E  E  E     Q    E  Q    E  E  E   
------------------------|------------------------|------------------------|
---------------2--------|---------------2--------|---------------2--------|
------------------3-----|------------------3-----|------------------3-----|
--3-------3----------3--|----------1----------1--|--1-------1----------1--|
-------4----------------|-------2----------------|-------2----------------|
------------------------|--6---------------------|------------------------|


  Q    E  Q    E  E  E     Q    E  Q    E  E  E     Q    E  Q    E  E  E   
------------------------|------------------------|------------------------|
---------------2--------|---------------2--------|---------------2--------|
------------------3-----|------------------3-----|------------------3-----|
----------1----------1--|--1-------1----------1--|----------3----------3--|
-------2----------------|-------2----------------|-------4----------------|
--6---------------------|------------------------|--1---------------------|


  Q    E  Q    E  E  E     Q    E  Q    E  E  E     Q    E  Q    E  E  E   
------------------------|------------------------|------------------------|
---------------2--------|---------------2--------|---------------2--------|
------------------3-----|------------------3-----|------------------3-----|
--3-------3----------3--|----------3----------3--|--3-------3----------3--|
-------4----------------|-------4----------------|-------4----------------|
------------------------|--1---------------------|------------------------|


  Q    E  Q    E  E  E     Q    E  Q    E  E  E     Q    E  Q    E  E  E   
------------------------|------------------------|------------------------|
---------------2--------|---------------2--------|---------------2--------|
------------------3-----|------------------3-----|------------------3-----|
----------1----------1--|--1-------1----------1--|----------1----------1--|
-------2----------------|-------2----------------|-------2----------------|
--6---------------------|------------------------|--6---------------------|


  Q    E  Q    E  E  E     Q    E  Q    E  E  E     Q    E  Q    E  E  E   
------------------------|------------------------|------------------------|
---------------2--------|---------------2--------|---------------2--------|
------------------3-----|------------------3-----|------------------3-----|
--1-------1----------1--|----------3----------3--|--3-------3----------3--|
-------2----------------|-------4----------------|-------4----------------|
------------------------|--1---------------------|------------------------|


  Q    E  Q    E  E  E     Q    E  Q    E  E  E     Q    E  Q    E  E  E   
------------------------|------------------------|------------------------|
---------------2--------|---------------2--------|---------------4--------|
------------------3-----|------------------3-----|------------------4-----|
----------3----------3--|--3-------3----------3--|----------4----------6--|
-------4----------------|-------4----------------|-------2----------------|
--1---------------------|------------------------|--2---------------------|


  Q    E  Q    E  E  E     Q    E  Q    E  E  E     Q    E  Q    E  E  E   
------------------------|------------------------|------------------------|
---------------4--------|---------------4--------|---------------4--------|
------------------4-----|------------------4-----|------------------4-----|
--4-------4----------6--|----------4----------6--|--4-------4----------6--|
-------2----------------|-------2----------------|-------2----------------|
------------------------|--2---------------------|------------------------|


  Q    E  Q    E  E  E     Q    E  Q    E  E  E     Q    E  Q    E  E  E   
------------------------|------------------------|------------------------|
---------------4--------|---------------4--------|---------------4--------|
------------------5-----|------------------5-----|----------1-------5-----|
----------6----------6--|--5-------5----------6--|-------3-------------3--|
-------3----------------|-------3----------------|--1---------------------|
--3---------------------|------------------------|------------------------|


  ^                   ^            ^                         
  W                   H.           Q       W                 
-------------------|--------------------|-------------------|
--3----------------|--2------------2----|-------------------|
--3----------------|--3------------3----|-------------------|
--3----------------|--1------------1----|-------------------|
--1----------------|--1------------1----|-------------------|
-------------------|--1------------1----|--L----------------|


  ^            ^                           ^            ^     
  H.           Q       W                   H.           Q     
--------------------|-------------------|--------------------|
--1------------1----|--L----------------|--1------------1----|
--3------------3----|--L----------------|--1------------1----|
--1------------1----|--L----------------|--3------------3----|
--------------------|--L----------------|--3------------3----|
--6------------6----|--L----------------|--3------------3----|


                      ^            ^                         
  W                   H.           Q       W                 
-------------------|--------------------|-------------------|
--L----------------|--3------------3----|--L----------------|
--L----------------|--4------------4----|--L----------------|
--L----------------|--6------------6----|--L----------------|
--L----------------|--1------------1----|--L----------------|
--L----------------|--------------------|-------------------|


  ^            ^                           ^            ^     
  H.           Q       W                   H.           Q     
--------------------|-------------------|--------------------|
--2------------2----|-------------------|--1------------1----|
--3------------3----|-------------------|--3------------3----|
--1------------1----|-------------------|--1------------1----|
--1------------1----|-------------------|--------------------|
--1------------1----|--L----------------|--6------------6----|


                      ^            ^                         
  W                   H.           Q       W                 
-------------------|--------------------|-------------------|
--L----------------|--1------------1----|--L----------------|
--L----------------|--1------------1----|--L----------------|
--L----------------|--3------------3----|--L----------------|
--L----------------|--3------------3----|--L----------------|
--L----------------|--3------------3----|--L----------------|


  ^            ^                           ^            ^     
  H.           Q       W                   H.           Q     
--------------------|-------------------|--------------------|
--3------------3----|--L----------------|--2------------2----|
--4------------4----|--L----------------|--3------------3----|
--6------------6----|--L----------------|--1------------1----|
--1------------1----|--L----------------|--1------------1----|
--------------------|-------------------|--1------------1----|


                      ^                                           
  W                   E  Q.     H           H        E  E  E  E   
-------------------|---------------------|-----------------------|
--L----------------|--1------------------|-----------------------|
--L----------------|--6------------------|-----------------------|
--L----------------|--4------------------|-----------------------|
--L----------------|--6------------------|--------------1--4--1--|
--L----------------|--6---------6--------|--L--------6-----------|


  ^                                                      
  W                                                      
-------------------|-----------|-----------|-----------||
--2----------------|-----------|-----------|-----------||
--1----------------|-----------|-----------|-----------||
--3----------------|-----------|-----------|-----------||
--4----------------|-----------|-----------|-----------||
-------------------|-----------|-----------|-----------||




Duration Legend
---------------
W - whole
H - half
Q - quarter
E - 8th
S - 16th
T - 32nd
X - 64th
. - note dotted
|-n-|  - n-tuplets


Tablature Legend
----------------
L - tied note

*For the rest of the tracks, see the Guitar Pro file.

Login or Register to remove this ad.

1 comment on Mog House

DUDE! YOU'RE MY HERO! I've

5

DUDE! YOU'RE MY HERO!
I've been wanting this song tabbed since I got my first guitar 2 years ago after I quit playing FFXI (my parent's stopped paying for the subscription). Props to you man!