Longfall (Final Fantasy XI) Guitar Tab

Submitted: Oct 01, 2007 by archard

0
Download | No audio :(
Game: Final Fantasy XI
Composer(s): Nobuo Uematsu, Kumi Tanioka, Naoshi Mizuta
Style: 2 or more instruments, Transcription
Series: Final Fantasy

AutoScroll: Slow | Medium | Fast
Transcribed by Aaron Morison ([email protected])

Gtr I (E A D G B E)
Gtr II (D A D G B E)
Gtr III (E A D G B E)
Gtr IV (E A D G B E)

  Q=88
 4/4         4/4
  Gtr I
  W           W          W          E. S E E Q  E E
|----------||----------|----------|-----------------|
|----------||----------|----------|-5--3-5-7-8----8-|
|----------||----------|----------|-------------9---|
|----------||----------|----------|-----------------|
|----------||----------|----------|-----------------|
|----------||----------|----------|-----------------|
|
| Gtr II
| W           W          W          H        H
|----------||----------|----------|----------0------|
|----------||----------|----------|-5--------1------|
|----------||----------|----------|-4--------0------|
|----------||----------|----------|-2---------------|
|----------||----------|----------|-----------------|
|----------||----------|----------|-2--------2------|

  Q  Q  Q  E E   E. S E E  Q  E E   Q    Q    H         E. S E E Q  E E
|----------3-5-|-7--5-7-8-10--8-7-|-5----8----7-------|-----------------|
|-7-----5------|------------------|-------------------|-5--3-5-7-8----8-|
|----7---------|------------------|-------------------|-------------9---|
|--------------|------------------|-------------------|-----------------|
|--------------|------------------|-------------------|-----------------|
|--------------|------------------|-------------------|-----------------|
|
| H     H        H         H        E. S E. S Q..   S   H        H
|-2------------|------------------|-------------------|----------0------|
|-3-----5------|-0---------3------|-3-----------------|-5--------1------|
|-------5------|-0---------2------|-2----5----4-------|-4--------0------|
|-4-----2------|-0---------0------|-0----4----2-------|-2---------------|
|-2------------|-----------0------|-0----7----2-------|-----------------|
|-------5------|-0----------------|----4----4-------2-|----------2------|

  Q  Q  Q  E E   E.  S E E   E E S S E   Q  S S E H      Q  S S E H
|--------------|-----------------------|---------------|---------------|
|-7-----5--3-1-|-0---------------7---8-|----7-5-3-5----|-5--7-5-3-5----|
|----7---------|-----2-4-5-----7-------|-9-------------|---------------|
|--------------|-------------7---------|---------------|---------------|
|--------------|-----------------------|---------------|---------------|
|--------------|-----------------------|---------------|---------------|
|
| H     H        Q..       S H           Q  Q     H      Q  Q     H
|-2------------|-3---------------------|----2-----0----|-0--2-----0----|
|-3-----5------|-3-----------7---------|-5--3-----0----|-0--3-----0----|
|-------5------|-4-----------7---------|-4--2-----0----|-0--2-----0----|
|-4-----2------|-0-----------7---------|-5--0-----2----|-2--0-----2----|
|-2------------|-----------5-----------|-7-------------|---------------|
|-------5------|-----------------------|---------------|---------------|

  E. S E E Q    E E     Q  Q  Q  E E   E. S E E  Q  E E   Q  Q  H
|---------------------|----------3-5-|-7--5-7-8-10--8-7-|-5--8--7----|
|-5--3-5-7-8------8---|-7-----5------|------------------|------------|
|---------------9-----|----7---------|------------------|------------|
|---------------------|--------------|------------------|------------|
|---------------------|--------------|------------------|------------|
|---------------------|--------------|------------------|------------|
|
| H        Q..      S   H     H        H         H        Q  Q  H
|----------0----------|-2------------|------------------|------------|
|-5--------1----------|-3-----5------|-0---------3------|-3----------|
|-4--------0----------|-------5------|-0---------2------|-2--5--4----|
|-2-------------------|-4-----2------|-0---------0------|-0--4--2----|
|-------------------2-|--------------|-----------0------|-0--7--2----|
|-2--------2----------|-------5------|-0----------------|----4--4----|

  E. S E E Q  E E   Q  Q  Q  E E   E. S E E E E S S E   Q  S S E H
|-----------------|--------------|--------------------|---------------|
|-5--3-5-7-8----8-|-7-----5--3-1-|-0------------7---8-|----7-5-3-5----|
|-------------9---|----7---------|----2-4-5---7-------|-9-------------|
|-----------------|--------------|----------7---------|---------------|
|-----------------|--------------|--------------------|---------------|
|-----------------|--------------|--------------------|---------------|
|
| H        H        H     H        H        H           Q  Q     H
|----------0------|-2------------|-3--------2---------|-0--2-----0----|
|-5--------1------|-3-----5------|-3--------3---------|-0--3-----0----|
|-4--------0------|-------5------|-4--------2---------|-0--2-----0----|
|-2---------------|-4-----2------|-0--------0---------|-2--0-----2----|
|-----------------|-2------------|--------------------|---------------|
|-2--------2------|-------5------|--------------------|---------------|

  Q  E S S  S  S  S  S  S S  S S
|--------------------------------|
|--------------------------------|
|--------------------------------|
|--------------------------------|
|------7-9-10-12-14-15-17--------|
|---------------------------19---|
|
| H         H
|--------------------------------|
|-5------------------------------|
|-4------------------------------|
|-2------------------------------|
|--------------------------------|
|-2------------------------------|

   H.       Q       Q  E S S S S S  S  S S  S S
|-----------------|-----------------------------|
|-----------------|-----------------------------|
|-----------------|------------------------11---|
|-----------------|------2-4-5-7-9-10-12--------|
|-19--------------|-----------------------------|
|-----------------|-----------------------------|
|
|  H     Q  E S S   H        Q         E    S S
|-----------------|-----------------------------|
|--5--------------|-5---------------------------|
|--5--------------|-4---------------------------|
|--5--------------|-2---------------------------|
|-----------------|-----------------------------|
|--5------------2-|---------------------------5-|

   H.       Q    Q  E  S  S  S  S  S  S  S S  S S    H.       Q
|--------------|----------------------------------|---------------|
|--------------|----------------------------------|---------------|
|-12-----------|----------------------------------|---------------|
|--------------|----------------------------------|---------------|
|--------------|----------------------------------|-19------------|
|--------------|------12-14-15-17-19-20-22---19---|---------------|
|
|  H     H       H           H                       H     H
|--------------|----------------------------------|---------------|
|--------------|-5--------------------------------|--5------------|
|--5-----------|-4--------------------------------|--5------------|
|--5-----------|----------------------------------|--5------------|
|--7-----------|-7--------------------------------|---------------|
|--------------|-5--------------------------------|--5------------|
|
| Gtr III
|  W             Q  E  S  S  S  S  S  S  S S  S S    H.       Q
|--------------|----------------------------------|---------------|
|--------------|----------------------------------|---------------|
|--------------|----------------------------------|---------------|
|--------------|-------2--4--5--7--9-10-12--------|-14------------|
|--------------|-----------------------------14---|---------------|
|--------------|----------------------------------|---------------|

  Q  E  S  S  S  S  S  S  S S  S S    H.       Q
|----------------------------------|--------------|
|----------------------------------|--------------|
|-----------------------------11---|-12-----------|
|-------2--4--5--7--9-10-12--------|--------------|
|----------------------------------|--------------|
|----------------------------------|--------------|
|
| H           H                       H     H
|----------------------------------|--------------|
|-5--------------------------------|--------------|
|-4--------------------------------|--5-----------|
|-2--------------------------------|--5-----------|
|----------------------------------|--7-----------|
|-2--------------------------------|--5-----------|
|
| Q  E  S  S  S  S  S  S  S S  S S    H.       Q
|----------------------------------|--------------|
|----------------------------------|--------------|
|----------------------------------|--------------|
|----------------------------------|--------------|
|-----------------------------21---|-22-----------|
|------12-14-15-17-19-20-22--------|--------------|

   E.  S  E  E    Q   E  E      Q   Q   Q  Q
|----------------------------|-------------------|
|----------------------------|-------------------|
|----------------------------|-------------------|
|-14--12-14-16---17-----17---|-16----------------|
|--------------------19------|-----17--19--------|
|----------------------------|-------------------|
|
|  H              H             H       H
|-----------------0----------|--2----------------|
|--5--------------1----------|--3-------5--------|
|--4--------------0----------|----------5--------|
|--2-------------------------|--4-------2--------|
|----------------------------|--2----------------|
|--2--------------2----------|----------5--------|
|
| Gtr IV
|  Q.        S S  Q   E  S S    Q   Q   Q  E E
|------------------------7---|--5---5---3--3-5---|
|--5---------5----5----------|-------------------|
|----------------------------|-------------------|
|----------------------------|-------------------|
|----------------------------|-------------------|
|----------------------------|-------------------|

  W                  W
|------------------|-------------------|
|------------------|-------------------|
|------------------|-------------------|
|------------------|-------------------|
|------------------|-------------------|
|------------------|-------------------|
|
| H         H        E. S E. S Q..   S
|------------------|-------------------|
|-0---------3------|-3-----------------|
|-0---------2------|-2----5----4-------|
|-0---------0------|-0----4----2-------|
|-----------0------|-0----7----2-------|
|-0----------------|----4----4-------2-|
|
| E. S E E  Q  E E   Q    Q    H
|-7--5-7-8-10--8-7-|-5----8----7-------|
|------------------|-------------------|
|------------------|-------------------|
|------------------|-------------------|
|------------------|-------------------|
|------------------|-------------------|

   E.  S  E  E    Q   E  E      Q   Q   Q  Q
|----------------------------|-----------------|
|----------------------------|-----------------|
|----------------------------|-----------------|
|----------------------------|-----------------|
|-19--17-19-21---22-----22---|-21--------------|
|--------------------24------|-----22--24------|
|
|  H              H             H       H
|-----------------0----------|--2--------------|
|--5--------------1----------|--3-------5------|
|--4--------------0----------|----------5------|
|--2-------------------------|--4-------2------|
|----------------------------|--2--------------|
|-----------------2----------|----------5------|
|
|  Q.        S S  Q   E  S S    Q   Q   Q  E E
|--7---------7----7------7---|--5---5---3------|
|----------------------------|-------------3-1-|
|----------------------------|-----------------|
|----------------------------|-----------------|
|----------------------------|-----------------|
|----------------------------|-----------------|

  W              W
|--------------|------------|
|--------------|------------|
|--------------|------------|
|--------------|------------|
|--------------|------------|
|--------------|------------|
|
| Q..   S H      Q  Q  H
|-3------------|----2--0----|
|-3-------7----|-5--3--0----|
|-4-------7----|-4--2--0----|
|-0-------7----|-5--0--2----|
|-------5------|-7----------|
|--------------|------------|
|
| Gtr III
| W              W
|--------------|------------|
|--------------|------------|
|--------------|------------|
|--------------|------------|
|--------------|------------|
|--------------|------------|

   E.      S  E  E  Q      E  E    Q      Q      Q     Q
|-------------------------------|-------------------------|
|-------------------------------|-------------------------|
|-------------------------------|-------------------------|
|-------------------------------|-------------------------|
|---------------21-22--------22-|-21----------------------|
|-24------22-24-----------24----|--------22-----24--------|
|
|  Q.            E  H              H             H
|--0----------------0-----------|--2----------------------|
|--0----------------1-----------|--3-------------5--------|
|--4----------------0-----------|----------------5--------|
|-------------------------------|--4-------------2--------|
|-------------------------------|--2----------------------|
|-------------------2-----------|----------------5--------|
|
|  S  S E     Q     S S E  Q       S S E  S S E  S S E Q
|-------------------------------|-------------------------|
|-------------------------------|-------------------------|
|-------------------------------|-------------------------|
|-------------------------------|-------------------------|
|-19---------------19-----------|-17-----17-----19--------|
|-22---------------22-----------|-21-----21-----22--------|

   W                     W
|---------------------|--------------------------------|
|---------------------|--------------------------------|
|---------------------|--------------------------------|
|---------------------|--------------------------------|
|---------------------|--------------------------------|
|---------------------|--------------------------------|
|
|  H         H           E.     S E.     S Q..       S
|---------------------|--------------------------------|
|--0---------3--------|--3-----------------------------|
|--0---------2--------|--2--------5--------4-----------|
|--0---------0--------|--0--------4--------2-----------|
|------------0--------|--0--------7--------2-----------|
|--0------------------|---------4--------4-----------2-|
|
|  S S E Q   S S E Q     S  S E   S  S E   S   S E Q
|---------------------|--------------------0-----------|
|---------------------|-----------3--------4-----------|
|---------------------|-----------7--------------------|
|---------------------|--------------------------------|
|-17--------17--------|-17-----------------------------|
|-21--------21--------|-21-----------------------------|

   E.      S  E  E  Q      E  E
|--------------------------------|
|--------------------------------|
|--------------------------------|
|--------------------------------|
|---------------21-22--------22--|
|-24------22-24-----------24-----|
|
|  H                H
|-------------------0------------|
|--5----------------1------------|
|--4----------------0------------|
|--2-----------------------------|
|--------------------------------|
|-------------------2------------|
|
|  S  S E     Q     S S E  Q
|--------------------------------|
|--5----------------5------------|
|--7----------------7------------|
|--------------------------------|
|--------------------------------|
|--------------------------------|

   Q      Q      Q     Q    W                      W
|-------------------------|----------------------|-----------------------|
|-------------------------|----------------------|-----------------------|
|-------------------------|----------------------|-----------------------|
|-------------------------|----------------------|-----------------------|
|-21----------------------|----------------------|-----------------------|
|--------22-----24--------|----------------------|-----------------------|
|
|  H             H          Q..       S H          Q     Q     H
|--2----------------------|-3--------------------|-------2-----0---------|
|--3-------------5--------|-3-----------7--------|-5-----3-----0---------|
|----------------5--------|-4-----------7--------|-4-----2-----0---------|
|--4-------------2--------|-0-----------7--------|-5-----0-----2---------|
|--2----------------------|-----------5----------|-7---------------------|
|----------------5--------|----------------------|-----------------------|
|
|  S S E  S S E  S S E Q    S   S E Q   S S E Q    S S E S S E S S E Q
|----------------0--------|-------------0--------|-0-----2-----0---------|
|--3------3------3--------|-3-----------3--------|-3-----3-----3---------|
|--6------6---------------|-6--------------------|-------5---------------|
|-------------------------|----------------------|-----------------------|
|-------------------------|----------------------|-----------------------|
|-------------------------|----------------------|-----------------------|

  S  S  E    S   S  S  S  S  S  E    S  S S S
|---------------------------------------------|
|-------------------------------------------8-|
|-0----------0-----------------12---------9---|
|---------------------17----14----------9-----|
|------22----------19---------------10--------|
|---24----------19-------15-------------------|
|
| E     S S +S   S  E     E     S S +S  S E
|-3--------------3--------3-------------3-----|
|-0-------3-(3)-----3-------------3-(3)-------|
|-0-----4-----------------------4---------4---|
|-2-------------------------------------------|
|---------------------------------------------|
|---------------------------------------------|

  S S E    S  S S S S S E    S  S S S
|-------------------------------------|
|-----7-----------7-----7-----------7-|
|---7-----------7-----7-----------7---|
|-------------7-----------------7-----|
|-9--------9--------9--------9--------|
|-------------------------------------|
|
| E   S S +S  S E   E   S S +S  S E
|-2-----------2-----2-----------2-----|
|-------3-(3)---3---------3-(3)-------|
|-----2-----------------2---------2---|
|-------------------------------------|
|-------------------------------------|
|-------------------------------------|

  S S E    S  S S S S S E    S  S S S   S S E    S  S S S S S E    S  S S S
|-------------------------------------|-----2-----------2-----2-----------2-|
|-----------------5-----------------5-|---3-----------3-----3-----------3---|
|-----9---------4-------9---------4---|-------------2-----------------2-----|
|---9---------5-------9---------5-----|-4--------4--------4--------4--------|
|-7--------7--------7--------7--------|-------------------------------------|
|-------------------------------------|-------------------------------------|
|
| E   S S +S  S E   E   S S +S  S E     E   S S +S  S E   E   S S +S  S E
|-------------------------------------|-------------------------------------|
|-5-----------5-----5-----------5-----|-7-----------7-----7-----------7-----|
|-------4-(4)---4---------4-(4)-------|-------7-(7)---7---------7-(7)-------|
|-----5-----------------5---------5---|-----7-----------------7---------7---|
|-------------------------------------|-------------------------------------|
|-------------------------------------|-------------------------------------|

  S S E    S  S S S S S E    S  S S S   S S E    S  S S S S S E    S  S S S
|-------------------------------------|-----3-----------3-----3-----------3-|
|-----5-----------5-----------------5-|---5-----------5-----5-----------5---|
|---4-----------4-------9---------4---|-------------5-----------------5-----|
|-2-----------5-------9---------5-----|-5--------5--------5--------5--------|
|----------7--------7--------7--------|-------------------------------------|
|-------------------------------------|-------------------------------------|
|
| E   S S +S  S E   E   S S +S  S E     E   S S +S  S E   E   S S +S  S E
|-------------------------------------|-3-----0-(0)-3-----3-----0-(0)-3-----|
|-5-----------5-----5-----------5-----|-----1---------5-------1---------1---|
|-------4-(4)---4---------4-(4)-------|-------------------------------------|
|-----5-----------------5---------5---|-------------------------------------|
|-------------------------------------|-------------------------------------|
|-------------------------------------|-------------------------------------|

  S S E    S  S S S S S E    S  S S S   S S E    S  S S S S S E    S  S S S
|-----0-----------0-----0-----------0-|-----2-----------2-----2-----------2-|
|---1-----------1-----1-----------1---|---3-----------3-----3-----------3---|
|-------------0-----------------0-----|-------------2-----------------2-----|
|-2--------2--------2--------2--------|-4--------4--------4--------4--------|
|-------------------------------------|-------------------------------------|
|-------------------------------------|-------------------------------------|
|
| E   S S +S  S E   E   S S +S  S E     E   S S +S  S E   E   S S +S  S E
|-0-----------0-----0-----------0-----|-2-----------2-----2-----------2-----|
|-------1-(1)---1---------1-(1)-------|-------3-(3)---3---------3-(3)-------|
|-----0-----------------0---------0---|-----2-----------------2---------2---|
|-------------------------------------|-------------------------------------|
|-------------------------------------|-------------------------------------|
|-------------------------------------|-------------------------------------|

  S S E    S  S S S S S E    S  S S S   S S E    S  S S S S S E    S  S S S
|-----0-----------0-----0-----------0-|---0-3-----------3-----3-----------3-|
|---1-----------1-----1-----------1---|---------------5-----5-----------5---|
|-------------0-----------------0-----|-0-----------5-----------------5-----|
|-2--------2--------2--------2--------|----------5--------5--------5--------|
|-------------------------------------|-------------------------------------|
|-------------------------------------|-------------------------------------|
|
| E   S S +S  S E   E   S S +S  S E     E   S S +S  S E   E   S S +S  S E
|-------------------------------------|-3-----0-(0)-3-----3-----0-(0)-3-----|
|-5-----------5-----5-----------5-----|-----1---------5-------1---------1---|
|-------5-(5)---5---------5-(5)-------|-------------------------------------|
|-----5-----------------5---------5---|-------------------------------------|
|-------------------------------------|-------------------------------------|
|-------------------------------------|-------------------------------------|

  S S E    S  S S S S S E    S  S S S   S S E    S  S S S S S E    S  S S S
|-----0-----------0-----0-----------0-|-----2-----------2-----2-----------2-|
|---1-----------1-----1-----------1---|---3-----------3-----3-----------3---|
|-------------0-----------------0-----|-------------2-----------------2-----|
|-2--------2--------2--------2--------|-4--------4--------4--------4--------|
|-------------------------------------|-------------------------------------|
|-------------------------------------|-------------------------------------|
|
| E   S S +S  S E   E   S S +S  S E     E   S S +S  S E   E   S S +S  S E
|-0-----------0-----0-----------0-----|-2-----------2-----2-----------2-----|
|-------1-(1)---1---------1-(1)-------|-------3-(3)---3---------3-(3)-------|
|-----0-----------------0---------0---|-----2-----------------2---------2---|
|-------------------------------------|-------------------------------------|
|-------------------------------------|-------------------------------------|
|-------------------------------------|-------------------------------------|

  S S E    S  S S S H      S  S S S S S  S  S  S  S  S  S  S  S  S  S
|-----2-----------2------|--------------------------------------------|
|---3-----------3--------|-5--5-5-5-5-5--7--7--8--8--8--8--8--8--8--8-|
|-------------2----------|----9---9-9-9-11-11-11-12-12-12-12-12-12-12-|
|-4--------4-------------|--------------------------------------------|
|------------------------|--------------------------------------------|
|------------------------|--------------------------------------------|
|
|                          Gtr IV
| E   S S +S  S E   H      E.     S S S  E     Q           E     E
|-2-----------2----------|-3------2-3----5-----7-----------------7----|
|-------3-(3)---3--------|---------------------------------8----------|
|-----2------------------|--------------------------------------------|
|------------------------|--------------------------------------------|
|------------------------|--------------------------------------------|
|------------------------|--------------------------------------------|

   S  S  S  S  S  S  S  S  S  S  S  S  S  S  S  S
|-10----------------------------------------------|
|--8-15-15-15-12-12-12-12-13-13-13-13-13-13-13-13-|
|----19-19-19-16-16-16-16-16-17-17-17-17-17-17-17-|
|-------------------------------------------------|
|-------------------------------------------------|
|-------------------------------------------------|
|
| Gtr II
|  W
|-------------------------------------------------|
|-------------------------------------------------|
|-------------------------------------------------|
|-------------------------------------------------|
|-------------------------------------------------|
|-------------------------------------------------|
|
| Gtr IV
|  Q           Q           Q           E     E
|--5----------------------------------------------|
|--------------7-----------8-----------8----10----|
|-------------------------------------------------|
|-------------------------------------------------|
|-------------------------------------------------|
|-------------------------------------------------|

   S  S E     Q         H
|-----------------------------------------|
|-13--------------------------------------|
|-----------------------------------------|
|-----------------------------------------|
|-----------------------------------------|
|-----------------------------------------|
|
|  S  S S  S  S S  S S  S S S S  S S  S S
|----------0---------0--------------------|
|-------1----------1--------0-3---------3-|
|-----0---------0---------0-----------4---|
|--2----------2---------0----------5------|
|--------------------------------5--------|
|-----------------------------------------|
|
|  E.      S  E    E    Q        E    E
|-----------------------------------------|
|-12------10-12---13---15-------13---12---|
|-----------------------------------------|
|-----------------------------------------|
|-----------------------------------------|
|-----------------------------------------|

  Gtr II
   S S S S S S S S S S S S S S S S
|----------------------------------|
|--------1-------1-----------------|
|------2-------2-------0-4-----0-4-|
|----2-------2-------2-------2-----|
|--3-------3-------2-------2-------|
|----------------------------------|
|
| Gtr IV
|  Q       Q       H
|----------8-------7---------------|
|-10-------------------------------|
|----------------------------------|
|----------------------------------|
|----------------------------------|
|----------------------------------|

  Gtr I
   S   S  S  S  S  S  S  S  S  S  S  S  S  S  S  S
|-----------------------------12-------15----------|
|-----12----------12-------------13-------17-------|
|--------11----------11----12----------------17----|
|-----------12-14-------12----------14----------17-|
|-14-----------------------------------------------|
|--------------------------------------------------|
|
|  Q.                 S  S  Q           E     S  S
|--7------------------7-----7-----------------7----|
|--------------------------------------------------|
|--------------------------------------------------|
|--------------------------------------------------|
|--------------------------------------------------|
|--------------------------------------------------|

   S  S  S  S  S  S  S  S  S  S  S  S  S  S  S  S
|-------------------------------------------------|
|-19----------------------------------------------|
|----19-------19----------------------------------|
|-------21-------21-------21----------19----------|
|----------21-------21-------21-19-------19-------|
|----------------------22----------19-------20-17-|
|
|  Q           Q           Q           E     E
|--5-----------5-----------3----------------------|
|--------------------------------------3-----1----|
|-------------------------------------------------|
|-------------------------------------------------|
|-------------------------------------------------|
|-------------------------------------------------|

   S   S  S  S  S  S  S  S  S  S  S  S  S  S  S  S
|--------------------------------------------------|
|--------------------------------------------------|
|-----19-------------------------------------------|
|--------21----24-21-------24-21-------24-21-------|
|-19--------22-------22----------22----------22----|
|-----------------------22----------22----------22-|
|
|  E.        S  E     E     E     E     E     E
|--------------------------------------------------|
|--0------------------------------------7-----8----|
|------------2--4-----5-----------7----------------|
|---------------------------7----------------------|
|--------------------------------------------------|
|--------------------------------------------------|

   S  S  S  S  S  S  S  S  S  S  S  S  S  S  S  S
|-------------------------------------------------|
|-------------------------------------------------|
|-------------19----------------------19----------|
|----21----------21----------21----------21-------|
|-------21-19-------21----------21-19-------21----|
|-19-------------------22-19-------------------19-|
|
|  Q           S  S  E     H
|-------------------------------------------------|
|--------------7--5--3-----5----------------------|
|--9----------------------------------------------|
|-------------------------------------------------|
|-------------------------------------------------|
|-------------------------------------------------|

   S  S  S  S  S  S  S  S  S  S  S  S  S  S  S  S
|-------------------------------------------------|
|-------------------------------------------------|
|-------------19----------------------19----------|
|----21----------21----------21----------21-------|
|-------21-19-------21----------21-19-------21----|
|-19-------------------22-19-------------------19-|
|
|  Q           S  S  E     H
|-------------------------------------------------|
|--5-----------7--5--3-----5----------------------|
|-------------------------------------------------|
|-------------------------------------------------|
|-------------------------------------------------|
|-------------------------------------------------|

  Gtr III
  W          W          S S S S S S S  S  +Q   Q    W
|----------|----------|---------3-7---12-(12)-----|------|
|----------|----------|-------5-------------------|------|
|----------|----------|---4-----------------------|------|
|----------|----------|-2-------------------------|------|
|----------|----------|---------------------------|------|
|----------|----------|---------------------------|------|

   S  S S  S  S  S S  S  +Q   Q    W           S  S S  S  S  S S  S  +Q   Q
|--------------------12-(12)-----|----------|--------------------12-(12)------|
|---------------10---------------|----------|---------------12----------------|
|------------12------------------|----------|------------12-------------------|
|---------14---------------------|----------|---------14----------------------|
|----14--------------------------|----------|----14---------------------------|
|-12-----------------------------|----------|-12------------------------------|

  W           S  S S  S  S  S S  S  +Q   Q    W
|----------|--------------------12-(12)-----|------|
|----------|---------------10---------------|------|
|----------|------------12------------------|------|
|----------|---------14---------------------|------|
|----------|----14--------------------------|------|
|----------|-12-----------------------------|------|

   S  S S  S  S  S S  S  +Q   Q    W           S  S S  S  S  S S  S  +Q   Q
|--------------------12-(12)-----|----------|--------------------12-(12)------|
|---------------12---------------|----------|---------------10----------------|
|------------12------------------|----------|------------12-------------------|
|---------14---------------------|----------|---------14----------------------|
|----14--------------------------|----------|----14---------------------------|
|-12-----------------------------|----------|-12------------------------------|

  W           S  S S  S  S  S S  S  +Q   Q    W
|----------|--------------------12-(12)-----|------|
|----------|---------------12---------------|------|
|----------|------------12------------------|------|
|----------|---------14---------------------|------|
|----------|----14--------------------------|------|
|----------|-12-----------------------------|------|

   S  S S  S  S  S S  S  +Q   Q    W           S  S S  S  S  S S  S  +Q   Q
|--------------------12-(12)-----|----------|--------------------12-(12)------|
|---------------10---------------|----------|---------------12----------------|
|------------12------------------|----------|------------12-------------------|
|---------14---------------------|----------|---------14----------------------|
|----14--------------------------|----------|----14---------------------------|
|-12-----------------------------|----------|-12------------------------------|

  Gtr I
  W           S  S  S  S  S  S  S  S  S  S  S  S  S  S  S  S
|----------|-------------------------------------------------|
|----------|-17-17-17-17-17-17-17-17-17-17-17-17-17-17-17-17-|
|----------|----21-21-21-21-21-21-21-21-21-21-21-21-21-21-21-|
|----------|-------------------------------------------------|
|----------|-------------------------------------------------|
|----------|-------------------------------------------------|
|
| Gtr III
| W           S  S  S  S  S  S  S  S  S  S  S  S  S  S  S  S
|----------|-------------12----------12----------12----------|
|----------|----------10----14----------14----------14-------|
|----------|--------9----------14----------14----------14----|
|----------|----11----------------14----------14----------14-|
|----------|-12----------------------------------------------|
|----------|-------------------------------------------------|

   S  S  S  S  S  S  S  S  S  S  S  S  S  S  S  S
|-------------------------------------------------|
|-17-14-14-14-14-14-14-14-14-14-14-14-14-14-14-14-|
|-18-18-18-18-18-18-18-18-18-18-18-18-18-18-18-18-|
|-------------------------------------------------|
|-------------------------------------------------|
|-------------------------------------------------|
|
|  S  S  S  S  S  S  S  S  S  S  S  S  S  S  S  S
|-------------12----------12----------12----------|
|----------10----14----------14----------14-------|
|--------9----------14----------14----------14----|
|----11----------------14----------14----------14-|
|-12----------------------------------------------|
|-------------------------------------------------|

   S  S  S  S  S  S  S  S  S  S  S  S  S  S  S  S
|-------------------------------------------------|
|-14-13-13-13-13-13-13-13-13-13-13-13-13-13-13-13-|
|-17-17-17-17-17-17-17-17-17-17-17-17-17-17-17-17-|
|-------------------------------------------------|
|-------------------------------------------------|
|-------------------------------------------------|
|
|  S  S  S  S  S  S  S  S  S  S  S  S  S  S  S  S
|--------------8-----------8-----------8----------|
|-----------------8-----------8-----------8-------|
|-----------9--------9-----------9-----------9----|
|-------10-------------10----------10----------10-|
|----10-------------------------------------------|
|-12----------------------------------------------|

   S  S  S  S  S  S  S  S  S  S  S  S  S  S  S  S
|-------------------------------------------------|
|-13-12-12-12-12-12-12-12-12-12-12-12-12-12-12-12-|
|-16-16-16-16-16-16-16-16-16-16-16-16-16-16-16-16-|
|-------------------------------------------------|
|-------------------------------------------------|
|-------------------------------------------------|
|
|  S  S  S  S  S  S  S  S  S  S  S  S  S  S  S  S
|-----------------------------------------------8-|
|--------------8-----------------------------8----|
|-----------9-----9-----------------9-----9-------|
|-------10----------10----------10----10----------|
|----10----------------10----10-------------------|
|-12----------------------12----------------------|

   S  S  S  S  S  S  S  S  S  S  S  S  S  S  S  S
|-12----------------------------------------------|
|-12-17-17-17-17-17-17-17-17-17-17-17-17-17-17-17-|
|----21-21-21-21-21-21-21-21-21-21-21-21-21-21-21-|
|-------------------------------------------------|
|-------------------------------------------------|
|-------------------------------------------------|
|
|  S  S  S  S  S  S  S  S  S  S  S  S  S  S  S  S
|-----------5-12----------12----------12----------|
|--------5-------14----------14----------14-------|
|-----6-------------14----------14----------14----|
|--7-------------------14----------14----------14-|
|-------------------------------------------------|
|-------------------------------------------------|

   S  S  S  S  S  S  S  S  S  S  S  S  S  S  S  S
|-------------------------------------------------|
|-17-14-14-14-14-14-14-14-14-14-14-14-14-14-14-14-|
|-18-18-18-18-18-18-18-18-18-18-18-18-18-18-18-18-|
|-------------------------------------------------|
|-------------------------------------------------|
|-------------------------------------------------|
|
|  S  S  S  S  S  S  S  S  S  S  S  S  S  S  S  S
|-------------12----------12----------12----------|
|----------10----14----------14----------14-------|
|--------9----------14----------14----------14----|
|----11----------------14----------14----------14-|
|-12----------------------------------------------|
|-------------------------------------------------|

   S  S  S  S  S  S  S  S  S  S  S  S  S  S  S  S
|-------------------------------------------------|
|-14-13-13-13-13-13-13-13-13-13-13-13-13-13-13-13-|
|-17-17-17-17-17-17-17-17-17-17-17-17-17-17-17-17-|
|-------------------------------------------------|
|-------------------------------------------------|
|-------------------------------------------------|
|
|  S  S  S  S  S  S  S  S  S  S  S  S  S  S  S  S
|--------------8-----------8-----------8----------|
|-----------------8-----------8-----------8-------|
|-----------9--------9-----------9-----------9----|
|-------10-------------10----------10----------10-|
|----10-------------------------------------------|
|-12----------------------------------------------|

   S  S  S  S  S  S  S  S  S  S  S  S  S  S  S  S
|-------------------------------------------------|
|-13-12-12-12-12-12-12-12-12-12-12-12-12-12-12-12-|
|-16-16-16-16-16-16-16-16-16-16-16-16-16-16-16----|
|-------------------------------------------------|
|-------------------------------------------------|
|-------------------------------------------------|
|
|  S  S  S  S  S  S  S  S  S  S  S  S  S  S  S  S
|-----------------------------------------------8-|
|--------------8-----------------------------8----|
|-----------9-----9-----------------9-----9-------|
|-------10----------10----------10----10----------|
|----10----------------10----10-------------------|
|-12----------------------12----------------------|
|
| Gtr IV
|  W
|-------------------------------------------------|
|-------------------------------------------------|
|-------------------------------------------------|
|-------------------------------------------------|
|-------------------------------------------------|
|-------------------------------------------------|

   E.  S  E  E    Q   E  E      Q   Q   Q  Q
|----------------------------|------------------|
|----------------------------|------------------|
|----------------------------|------------------|
|-14--12-14-16---17-----17---|-16---------------|
|--------------------19------|-----17--19-------|
|----------------------------|------------------|
|
| Gtr II
|  H              H             H       H
|-----------------0----------|--2---------------|
|--5--------------1----------|--3-------5-------|
|--4--------------0----------|----------5-------|
|--2-------------------------|--4-------2-------|
|----------------------------|--2---------------|
|--2--------------2----------|----------5-------|
|
|  Q.        S S  Q   E  S S    Q   Q   Q  E E
|------------------------7---|--5---5---3--3-5--|
|--5---------5----5----------|------------------|
|----------------------------|------------------|
|----------------------------|------------------|
|----------------------------|------------------|
|----------------------------|------------------|

  W                  W
|------------------|-------------------|
|------------------|-------------------|
|------------------|-------------------|
|------------------|-------------------|
|------------------|-------------------|
|------------------|-------------------|
|
| H         H        E. S E. S Q..   S
|------------------|-------------------|
|-0---------3------|-3-----------------|
|-0---------2------|-2----5----4-------|
|-0---------0------|-0----4----2-------|
|-----------0------|-0----7----2-------|
|-0----------------|----4----4-------2-|
|
| E. S E E  Q  E E   Q    Q    H
|-7--5-7-8-10--8-7-|-5----8----7-------|
|------------------|-------------------|
|------------------|-------------------|
|------------------|-------------------|
|------------------|-------------------|
|------------------|-------------------|

   E.  S  E  E    Q   E  E      Q   Q   Q  Q
|----------------------------|-----------------|
|----------------------------|-----------------|
|----------------------------|-----------------|
|----------------------------|-----------------|
|-19--17-19-21---22-----22---|-21--------------|
|--------------------24------|-----22--24------|
|
|  H              H             H       H
|-----------------0----------|--2--------------|
|--5--------------1----------|--3-------5------|
|--4--------------0----------|----------5------|
|--2-------------------------|--4-------2------|
|----------------------------|--2--------------|
|-----------------2----------|----------5------|
|
|  Q.        S S  Q   E  S S    Q   Q   Q  E E
|--7---------7----7------7---|--5---5---3------|
|----------------------------|-------------3-1-|
|----------------------------|-----------------|
|----------------------------|-----------------|
|----------------------------|-----------------|
|----------------------------|-----------------|

  W              W
|--------------|------------|
|--------------|------------|
|--------------|------------|
|--------------|------------|
|--------------|------------|
|--------------|------------|
|
| Q..   S H      Q  Q  H
|-3------------|----2--0----|
|-3-------7----|-5--3--0----|
|-4-------7----|-4--2--0----|
|-0-------7----|-5--0--2----|
|-------5------|-7----------|
|--------------|------------|
|
| Gtr III
| W              W
|--------------|------------|
|--------------|------------|
|--------------|------------|
|--------------|------------|
|--------------|------------|
|--------------|------------|

   E.      S  E  E  Q      E  E    Q      Q      Q     Q
|-------------------------------|-------------------------|
|-------------------------------|-------------------------|
|-------------------------------|-------------------------|
|-------------------------------|-------------------------|
|---------------21-22--------22-|-21----------------------|
|-24------22-24-----------24----|--------22-----24--------|
|
|  Q.            E  H              H             H
|--0----------------0-----------|--2----------------------|
|--0----------------1-----------|--3-------------5--------|
|--4----------------0-----------|----------------5--------|
|-------------------------------|--4-------------2--------|
|-------------------------------|--2----------------------|
|-------------------2-----------|----------------5--------|
|
|  S  S E     Q     S S E  Q       S S E  S S E  S S E Q
|-------------------------------|-------------------------|
|-------------------------------|----------------5--------|
|--9----------------9-----------|--7------7------7--------|
|-12---------------12-----------|-11-----11---------------|
|-------------------------------|-------------------------|
|-------------------------------|-------------------------|

  W                   W
|-------------------|-------------------------------|
|-------------------|-------------------------------|
|-------------------|-------------------------------|
|-------------------|-------------------------------|
|-------------------|-------------------------------|
|-------------------|-------------------------------|
|
| H        H          E.     S E.     S Q..       S
|-------------------|-------------------------------|
|-0--------3--------|-3-----------------------------|
|-0--------2--------|-2--------5--------4-----------|
|-0--------0--------|-0--------4--------2-----------|
|----------0--------|-0--------7--------2-----------|
|-0-----------------|--------4--------4-----------2-|
|
| S S E Q  S S E Q    S  S E   S  S E   S   S E Q
|-------------------|-------------------0-----------|
|-3--------3--------|-3--------3--------4-----------|
|-6--------6--------|-6--------7--------------------|
|-------------------|-------------------------------|
|-------------------|-------------------------------|
|-------------------|-------------------------------|

   E.      S  E  E  Q      E  E
|--------------------------------|
|--------------------------------|
|--------------------------------|
|--------------------------------|
|---------------21-22--------22--|
|-24------22-24-----------24-----|
|
|  H                H
|-------------------0------------|
|--5----------------1------------|
|--4----------------0------------|
|--2-----------------------------|
|--------------------------------|
|-------------------2------------|
|
|  S  S E     Q     S S E  Q
|--------------------------------|
|--5----------------5------------|
|--7----------------7------------|
|--------------------------------|
|--------------------------------|
|--------------------------------|

   Q      Q      Q     Q    W                      W
|-------------------------|----------------------|-----------------------|
|-------------------------|----------------------|-----------------------|
|-------------------------|----------------------|-----------------------|
|-------------------------|----------------------|-----------------------|
|-21----------------------|----------------------|-----------------------|
|--------22-----24--------|----------------------|-----------------------|
|
|  H             H          Q..       S H          Q     Q     H
|--2----------------------|-3--------------------|-------2-----0---------|
|--3-------------5--------|-3-----------7--------|-5-----3-----0---------|
|----------------5--------|-4-----------7--------|-4-----2-----0---------|
|--4-------------2--------|-0-----------7--------|-5-----0-----2---------|
|--2----------------------|-----------5----------|-7---------------------|
|----------------5--------|----------------------|-----------------------|
|
|  S S E  S S E  S S E Q    S   S E Q   S S E Q    S S E S S E S S E Q
|----------------0--------|-------------0--------|-0-----2-----0---------|
|--3------3------3--------|-3-----------3--------|-3-----3-----3---------|
|--6------6---------------|-6--------------------|-------5---------------|
|-------------------------|----------------------|-----------------------|
|-------------------------|----------------------|-----------------------|
|-------------------------|----------------------|-----------------------|

  S  S  E    S   S  S  S  S  S  E    S  S S S
|---------------------------------------------|
|-------------------------------------------8-|
|-0----------0-----------------12---------9---|
|---------------------17----14----------9-----|
|------22----------19---------------10--------|
|---24----------19-------15-------------------|
|
| E     S S +S   S  E     E     S S +S  S E
|-3--------------3--------3-------------3-----|
|-0-------3-(3)-----3-------------3-(3)-------|
|-0-----4-----------------------4---------4---|
|-2-------------------------------------------|
|---------------------------------------------|
|---------------------------------------------|

  S S E    S  S S S S S E    S  S S S
|-------------------------------------|
|-----7-----------7-----7-----------7-|
|---7-----------7-----7-----------7---|
|-------------7-----------------7-----|
|-9--------9--------9--------9--------|
|-------------------------------------|
|
| E   S S +S  S E   E   S S +S  S E
|-2-----------2-----2-----------2-----|
|-------3-(3)---3---------3-(3)-------|
|-----2-----------------2---------2---|
|-------------------------------------|
|-------------------------------------|
|-------------------------------------|

  S S E    S  S S S S S E    S  S S S   S S E    S  S S S S S E    S  S S S
|-------------------------------------|-----2-----------2-----2-----------2-|
|-----------------5-----------------5-|---3-----------3-----3-----------3---|
|-----9---------4-------9---------4---|-------------2-----------------2-----|
|---9---------5-------9---------5-----|-4--------4--------4--------4--------|
|-7--------7--------7--------7--------|-------------------------------------|
|-------------------------------------|-------------------------------------|
|
| E   S S +S  S E   E   S S +S  S E     E   S S +S  S E   E   S S +S  S E
|-------------------------------------|-------------------------------------|
|-5-----------5-----5-----------5-----|-7-----------7-----7-----------7-----|
|-------4-(4)---4---------4-(4)-------|-------7-(7)---7---------7-(7)-------|
|-----5-----------------5---------5---|-----7-----------------7---------7---|
|-------------------------------------|-------------------------------------|
|-------------------------------------|-------------------------------------|

  S S E    S  S S S S S E    S  S S S   S S E    S  S S S S S E    S  S S S
|-------------------------------------|-----3-----------3-----3-----------3-|
|-----5-----------5-----------------5-|---5-----------5-----5-----------5---|
|---4-----------4-------9---------4---|-------------5-----------------5-----|
|-2-----------5-------9---------5-----|-5--------5--------5--------5--------|
|----------7--------7--------7--------|-------------------------------------|
|-------------------------------------|-------------------------------------|
|
| E   S S +S  S E   E   S S +S  S E     E   S S +S  S E   E   S S +S  S E
|-------------------------------------|-3-----0-(0)-3-----3-----0-(0)-3-----|
|-5-----------5-----5-----------5-----|-----1---------5-------1---------1---|
|-------4-(4)---4---------4-(4)-------|-------------------------------------|
|-----5-----------------5---------5---|-------------------------------------|
|-------------------------------------|-------------------------------------|
|-------------------------------------|-------------------------------------|

  S S E    S  S S S S S E    S  S S S   S S E    S  S S S S S E    S  S S S
|-----0-----------0-----0-----------0-|-----2-----------2-----2-----------2-|
|---1-----------1-----1-----------1---|---3-----------3-----3-----------3---|
|-------------0-----------------0-----|-------------2-----------------2-----|
|-2--------2--------2--------2--------|-4--------4--------4--------4--------|
|-------------------------------------|-------------------------------------|
|-------------------------------------|-------------------------------------|
|
| E   S S +S  S E   E   S S +S  S E     E   S S +S  S E   E   S S +S  S E
|-0-----------0-----0-----------0-----|-2-----------2-----2-----------2-----|
|-------1-(1)---1---------1-(1)-------|-------3-(3)---3---------3-(3)-------|
|-----0-----------------0---------0---|-----2-----------------2---------2---|
|-------------------------------------|-------------------------------------|
|-------------------------------------|-------------------------------------|
|-------------------------------------|-------------------------------------|

  S S E    S  S S S S S E    S  S S S   S S E    S  S S S S S E    S  S S S
|-----0-----------0-----0-----------0-|---0-3-----------3-----3-----------3-|
|---1-----------1-----1-----------1---|---------------5-----5-----------5---|
|-------------0-----------------0-----|-0-----------5-----------------5-----|
|-2--------2--------2--------2--------|----------5--------5--------5--------|
|-------------------------------------|-------------------------------------|
|-------------------------------------|-------------------------------------|
|
| E   S S +S  S E   E   S S +S  S E     E   S S +S  S E   E   S S +S  S E
|-------------------------------------|-3-----0-(0)-3-----3-----0-(0)-3-----|
|-5-----------5-----5-----------5-----|-----1---------5-------1---------1---|
|-------5-(5)---5---------5-(5)-------|-------------------------------------|
|-----5-----------------5---------5---|-------------------------------------|
|-------------------------------------|-------------------------------------|
|-------------------------------------|-------------------------------------|

  S S E    S  S S S S S E    S  S S S   S S E    S  S S S S S E    S  S S S
|-----0-----------0-----0-----------0-|-----2-----------2-----2-----------2-|
|---1-----------1-----1-----------1---|---3-----------3-----3-----------3---|
|-------------0-----------------0-----|-------------2-----------------2-----|
|-2--------2--------2--------2--------|-4--------4--------4--------4--------|
|-------------------------------------|-------------------------------------|
|-------------------------------------|-------------------------------------|
|
| E   S S +S  S E   E   S S +S  S E     E   S S +S  S E   E   S S +S  S E
|-0-----------0-----0-----------0-----|-2-----------2-----2-----------2-----|
|-------1-(1)---1---------1-(1)-------|-------3-(3)---3---------3-(3)-------|
|-----0-----------------0---------0---|-----2-----------------2---------2---|
|-------------------------------------|-------------------------------------|
|-------------------------------------|-------------------------------------|
|-------------------------------------|-------------------------------------|

  S S E    S  S S S H
|-----2-----------2------*|
|---3-----------3--------*|
|-------------2----------*|
|-4--------4-------------*|
|------------------------*|
|------------------------*|
|
| E   S S +S  S E   H
|-2-----------2----------*|
|-------3-(3)---3--------*|
|-----2------------------*|
|------------------------*|
|------------------------*|
|------------------------*|
Login or Register to remove this ad.