Ads

Nobody Told Me About Id (Doom) Bass Tab

Submitted: Nov 11, 2008 by auriplane (Last updated: Nov 12, 2008)

0
Download | Listen
Game: Doom
Composer(s): Bobby Prince
Style: Transcription
Series: Doom

AutoScroll: Slow | Medium | Fast
                 Doom 1 - Nobody Told Me About id BASS TAB
                          Song by Robert Prince

                  Tabbed by auriplane ([email protected])

The second half of this song is about the same as the first half, but
in cut time (twice as fast).

Four-string bass, standard tuning.

    Intro

G |----------------|----------------|
D |------(      Rest for     )------|
A |------(    two measures   )------|
E |----------------|----------------|

    Part A

G |----------------|----------------|----------------|----------------|
D |--------0-3-2---|--------0-3-2---|--------0-3-2---|--------0-3-2---|
A |0---3-0---------|0---3-0---------|0---3-0---------|0---3-0---------|
E |----------------|----------------|----------------|----------------|

G |----------------|----------------|----------------|----------------|
D |--------3-6-5---|--------3-6-5---|--------3-6-5---|--------3-6-5---|
A |3---6-3---------|3---6-3---------|3---6-3---------|3---6-3---------|
E |----------------|----------------|----------------|----------------|

G |----------------|----------------|----------------|----------------|
D |--------0-3-2---|--------0-3-2---|--------0-3-2---|--------0-3-2---|
A |0---3-0---------|0---3-0---------|0---3-0---------|0---3-0---------|
E |----------------|----------------|----------------|--------------3-|

G |----------------|----------------|
D |----------------|----------------|
A |0---------------|----------------|
E |----------------|----------------|

    Part B

G |----------------|----------------|----------------|----------------|
D |----032-----032-|----032-----032-|----032-----032-|----032-----032-|
A |0-30----0-30----|0-30----0-30----|0-30----0-30----|0-30----0-30----|
E |----------------|----------------|----------------|----------------|

G |----------------|----------------|----------------|----------------|
D |----365-----365-|----365-----365-|----365-----365-|----365-----365-|
A |3-63----3-63----|3-63----3-63----|3-63----3-63----|3-63----3-63----|
E |----------------|----------------|----------------|----------------|

G |----------------|----------------|----------------|----------------|
D |----032-----032-|----032-----032-|----032-----032-|----032-----032-|
A |0-30----0-30----|0-30----0-30----|0-30----0-30----|0-30----0-30----|
E |----------------|---------------3|----------------|---------------3|

G |----------------|----------------|
D |----------------|----------------|
A |0---------------|----------------|
E |----------------|----------------|

    Repeat back to A.


Login or Register to remove this ad.