Ads

E1M8: Phobos Anomaly (Doom) Guitar Tab

Submitted: Nov 08, 2008 by tylersaintcool

5
Average: 5 (3 votes)
Download | Listen
Game: Doom
Composer(s): Bobby Prince
Style: Transcription
Series: Doom

AutoScroll: Slow | Medium | Fast
Phobos Anomaly  -  E1M8
Music from: DOOM (PC)
Transcribed by: tylersaintcool
Tuning: Standard (E A D G B e)
Notes: 
The second bend in Riff C2 is a bit awkward to
understand in this tab.  It's more of a slow
"feel" bend if you listen closely.  It begins 
slow and the string is bent "up and down" slowly again.

All guitar parts are electric with distortion.

Tab explanation:
/  slide up
~  vibrato
(^)  slow bend


Riff A:
e|----------------------------|
B|--8/9~~~---8--6-------8~~~~-|
G|-------------------8--------| x 2
D|----------------------------|
A|----------------------------|
E|----------------------------|

Riff A2:
e|-------------8-------------------8--11--8--|
B|--8/9~~~---9---9--8~~~---9~~~--9-----------|
G|-------------------------------------------|
D|-------------------------------------------|
A|-------------------------------------------|
E|-------------------------------------------|

repeat:
Riff A
Riff A2

Riff B:
e|--------------------------|
B|--------------------------|
G|--------------------------| x 2
D|--5/6~~~---5--3-----5~~~--|
A|-----------------6--------|
E|--------------------------|

Riff B2:
e|----------------------------------------|
B|----------------------------------------|
G|------------5------------------5--8--5--|
D|--5/6~~~--6---6--5~~~--6~~~--6----------|
A|----------------------------------------|
E|----------------------------------------|

Riff C:
e|---------------------------------|
B|---------------------------------|
G|--9/10~~~--10-8-7------8(^)------|
D|-------------------10--------10--|
A|---------------------------------|
E|---------------------------------|

Riff C2:
e|--------------------------------|
B|--------------------------------|
G|--9/10~~~--10-8-7------8(^)~~~--|
D|-------------------10-----------|
A|--------------------------------|
E|--------------------------------|

Riff C2 (continued):
e|--------------------------------------------------------------|
B|--------------------------------------------------------------|
G|--9/10~~~--10-8-7------8(^)---------------------------4--5~~--|
D|-------------------10--------10----5-5h6~~--5-6(^)~~----------|
A|--------------------------------------------------------------|
E|--------------------------------------------------------------|

Login or Register to remove this ad.

3 comments on E1M8: Phobos Anomaly

i love it i wish there where

5

i love it i wish there where more doom one's

Thank you so much

5

Awesome! Greatly appreciated!

Its very cool

5

Its very cool