Login or Register to remove this ad.

Waiting for Romero to Play (Doom 2) Guitar Tab

Submitted: Nov 08, 2008 by auriplane (Last updated: Nov 11, 2008)

5
Average: 5 (1 vote)
Download | Listen
Game: Doom 2
Composer(s): Bobby Prince
Style: 2 or more instruments, Transcription
Series: Doom

AutoScroll: Slow | Medium | Fast
              Doom 2 - Waiting for Romero to Play GUITAR TAB
                          Song by Robert Prince

                  Tabbed by auriplane ([email protected])

There's two guitar parts here.  The first guitar is the actual guitar
part, while the second guitar plays the violin pizzicato part.  The
other two parts are bass, which I made a separate tab for, and
strings, which I haven't figured out or tabbed yet.  The strings come
in on the third time around.

Standard tuning.

   Gtr I
e |----------------|----------------|----------------|----------------|
B |----------------|----------------|----------------|----------------|
G |----8-----8-----|----8-----8-----|----8-----8-----|----8-----8-----|
D |--10----10--10--|--10----10--10--|--10----10--10--|--10----10--10--|
A |8-----9-------9-|8-----9-------9-|8-----9-------9-|8-----9-------9-|
E |----------------|----------------|----------------|----------------|

e |----------------|----------------|----------------|----------------|
B |----------------|----------------|----------------|--------10------|
G |----8-----8-----|----8-----8-----|----8-----8-----|------8---------|
D |--10----10--10--|--10----10--10--|--10----10--10--|----10----------|
A |8-----9-------9-|8-----9-------9-|8-----9-------9-|8-9-------------|
E |----------------|----------------|----------------|----------------|

e |----------------|----------------|----------------|----------------|
B |----9-----9-11-9|----9-----9-11-9|----9-----9-11-9|----------7-9---|
G |--10----10------|--10----10------|--10----10------|----7-8-10------|
D |8-----9---------|8-----9---------|8-----9---------|8-9-------------|
A |----------------|----------------|----------------|----------------|
E |----------------|----------------|----------------|----------------|

e |----------------|----------------|----------------|----------------|
B |----------------|----------------|----------------|--------10------|
G |----8-----8-----|----8-----8-----|----8-----8-----|----8-10--------|
D |--10----10--10--|--10----10--10--|--10----10--10--|--10------------|
A |8-----9-------9-|8-----9-------9-|8-----9-------9-|8---------------|
E |----------------|----------------|----------------|----------------|

e |----------------|----------------|----------------|----------------|
B |----11----111311|----11----111311|----11----111311|----11----111311|
G |--12----12------|--12----12------|--12----12------|--12----12------|
D |10----11--------|14----15--------|14----11--------|14--------------|
A |----------------|----------------|----------------|------15--------|
E |----------------|----------------|----------------|----------------|

e |----------------|----------------|----------------|----------------|
B |----9-----9-11-9|----9-----9-11-9|----9-----9-11-9|118-------------|
G |--10----10------|--10----10------|--10----10------|----9-----------|
D |8-----9---------|8-----9---------|8-----9---------|------11108-----|
A |----------------|----------------|----------------|------------119-|
E |----------------|----------------|----------------|----------------|

e |----------------|----------------|----------------|------------8---|
B |----------------|----------------|----------------|----------10----|
G |----8-----8-----|----8-----8-----|----8-----8-----|----8---11------|
D |--10----10--10--|--10----10--10--|--10----10--10--|--10------------|
A |8-----9-------9-|8-----9-------9-|8-----9-------9-|8-----9---------|
E |----------------|----------------|----------------|--------------2-|

e |----------------|----------------|----------------|----------------|
B |----------------|----------------|----------------|----------------|
G |----------------|----------------|----------------|----------------|
D |----------------|----------------|----------------|----------------|
A |----------------|----------------|----------------|----------------|
E |1---------------|----------------|----------------|----------------|

    Repeat everything, two more times.


    The second guitar part starts when the first guitar repeats, after
    the four measures where only the bass plays.  If you prefer to
    count, rest for 32 measures.

    Gtr II 
e |----------------|----------------|----------------|----------------|
B |----------------|----------------|----------------|----------------|
G |108-------8-108-|108-------11108-|108-------8-108-|108-------11108-|
D |----10----------|----10----------|----10----------|----10----------|
A |----------------|----------------|----------------|----------------|
E |----------------|----------------|----------------|----------------|

e |----------------|----------------|----------------|----------------|
B |----------------|----------------|----------------|----------------|
G |108-------8-108-|108-------8-108-|108-------11108-|10--------------|
D |----10----------|----10----------|----10----------|----------------|
A |----------------|----------------|----------------|----------------|
E |----------------|----------------|----------------|----------------|

e |----------------|----------9-----|----------------|----------------|
B |12119-----111211|12119-------1211|12119-----111211|9---------------|
G |----------------|----------------|----------------|----------------|
D |----------------|----------------|----------------|----------------|
A |----------------|----------------|----------------|----------------|
E |----------------|----------------|----------------|----------------|

e |----------------|----------------|----------------|----------------|
B |----------------|----------------|----------------|----------------|
G |108-------8-108-|108-------11108-|108-------8-108-|10--------------|
D |----10----------|----10----------|----10----------|----------------|
A |----------------|----------------|----------------|----------------|
E |----------------|----------------|----------------|----------------|

e |12--------12----|12--------12----|12--------12----|12--------12----|
B |--1413------1413|--1413------1413|--1413------1413|--1413------1413|
G |----------------|----------------|----------------|----------------|
D |----------------|----------------|----------------|----------------|
A |----------------|----------------|----------------|----------------|
E |----------------|----------------|----------------|----------------|

e |----------------|----------9-----|----------------|9---------------|
B |12119-----111211|12119-------1211|12119-----12119-|--118-----------|
G |----------------|----------------|----------------|-----9----------|
D |----------------|----------------|----------------|-------10-8-----|
A |----------------|----------------|----------------|------------119-|
E |----------------|----------------|----------------|----------------|

e |----------------|----------------|----------------|----------------|
B |----------------|----------------|----------------|----------------|
G |108-------11108-|108-------11108-|108-------8-108-|10--------------|
D |----10----------|----10----------|----10----------|----------------|
A |----------------|----------------|----------------|----------------|
E |----------------|----------------|----------------|----------------|

e |----------------|----------------|----------------|----------------|
B |----------------|----------------|----------------|----------------|
G |----------------|----------------|----------------|----------------|
D |----------------|----------------|----------------|----------------|
A |----------------|----------------|----------------|----------------|
E |----------------|----------------|----------------|----------------|

    This is the third time around, for bass and first guitar, but the
    second guitar part is *slightly* different.

e |----------------|----------------|----------------|----------------|
B |----------------|----------------|----------------|----------------|
G |108-------8-108-|108-------11108-|108-------8-108-|108-------11108-|
D |----10----------|----10----------|----10----------|----10----------|
A |----------------|----------------|----------------|----------------|
E |----------------|----------------|----------------|----------------|

e |----------------|----------------|----------------|----------------|
B |----------------|----------------|----------------|----------------|
G |108-------8-108-|108-------8-108-|108-------11108-|108-------------|
D |----10----------|----10----------|----10----------|----10----------|
A |----------------|----------------|----------------|----------------|
E |----------------|----------------|----------------|----------------|

e |----------------|----------------|----------------|----------------|
B |12119-----111211|12119-----111211|12119-----111211|12119-----------|
G |----------------|----------------|----------------|----------------|
D |----------------|----------------|----------------|----------------|
A |----------------|----------------|----------------|----------------|
E |----------------|----------------|----------------|----------------|

e |----------------|----------------|----------------|----------------|
B |----------------|----------------|----------------|----------------|
G |108-------8-108-|108-------11108-|108-------8-108-|108-------------|
D |----10----------|----10----------|----10----------|----10----------|
A |----------------|----------------|----------------|----------------|
E |----------------|----------------|----------------|----------------|

e |12--------12----|12--------12----|12--------12----|12--------12----|
B |--1413------1413|--1413------1413|--1413------1413|--1413------1413|
G |----------------|----------------|----------------|----------------|
D |----------------|----------------|----------------|----------------|
A |----------------|----------------|----------------|----------------|
E |----------------|----------------|----------------|----------------|

e |----------9-----|----------------|----------------|9---------------|
B |12119-------1211|12119-----111211|12119-----12119-|--118-----------|
G |----------------|----------------|----------------|-----9----------|
D |----------------|----------------|----------------|-------10-8-----|
A |----------------|----------------|----------------|------------119-|
E |----------------|----------------|----------------|----------------|

e |----------------|----------------|----------------|----------------|
B |----------------|----------------|----------------|----------------|
G |108-------11108-|108-------11108-|108-------11108-|10--------------|
D |----10----------|----10----------|----10----------|----------------|
A |----------------|----------------|----------------|----------------|
E |----------------|----------------|----------------|----------------|

e |----------------|----------------|----------------|----------------|
B |----------------|----------------|----------------|----------------|
G |----------------|----------------|----------------|----------------|
D |----------------|----------------|----------------|----------------|
A |----------------|----------------|----------------|----------------|
E |----------------|----------------|----------------|----------------|

Login or Register to remove this ad.

2 comments on Waiting for Romero to Play

Metallica?

5

Nice job, but doesn't this remind anyone of a song metallica did? I think a note or two is different and thats it.

No, it's Pantera. "This

No, it's Pantera. "This Love"

I didn't know that when I made the tab x-x