Main Theme (The Elder Scrolls III: Morrowind) Guitar Tab

Submitted: Feb 04, 2009 by smiley

5
Average: 5 (7 votes)
Download | Listen
Game: The Elder Scrolls III: Morrowind
Composer(s): Jeremy Soule
Style: Transcription

AutoScroll: Slow | Medium | Fast
Main Theme
Elder Scrolls 3: Morrowind
Composed by: Jeremy Soule
Tabbed By: Smiley
Date Tabbed: February 2nd 2009

e|  ---------------------------6---------------------------------------------------------------------------
B|  ----------------6--8----8-----6----8--6--4--3--1-------------------------------------------------------
G|  --5--7--8----8-----------------------------------------------------------------------------------------
D|  -------------------------------------------------------------------------------------------------------
A|  -------------------------------------------------------------------------------------------------------
E|  -------------------------------------------------------------------------------------------------------


e|  ---------------------------6--8----6--10--8------------------------------------------------------------
B|  ----------------6--8----8------------------------------------------------------------------------------
G|  --5--7--8----8-----------------------------------------------------------------------------------------
D|  -------------------------------------------------------------------------------------------------------
A|  -------------------------------------------------------------------------------------------------------
E|  -------------------------------------------------------------------------------------------------------
-
e|  ---8--10--11----10--8--6----4--3--1-------3--1---------------------------------------------------------
B|  ---------------------------------------4----------4--3--1----------------------------------------------
G|  -------------------------------------------------------------------------------------------------------
D|  -------------------------------------------------------------------------------------------------------
A|  -------------------------------------------------------------------------------------------------------
E|  -------------------------------------------------------------------------------------------------------

Above Played Thrice- 
Then another:

e|  -------------------------------------------------------------------------------------------------------
B|  --4--3--1----------------------------------------------------------------------------------------------
G|  -------------------------------------------------------------------------------------------------------
D|  -------------------------------------------------------------------------------------------------------
A|  -------------------------------------------------------------------------------------------------------
E|  -------------------------------------------------------------------------------------------------------
Login or Register to remove this ad.

6 comments on Main Theme

GREAT!! i really liked it so

5

GREAT!! i really liked it so simple to play but yet accurate, this theme is just amazing.

Amazing version for

5

Amazing version for begginers.. kudos

Thanks! The other Morrowind

Thanks!
The other Morrowind tabs are harder, arent they? Mine is simple and for beginners.
(Well, I made it that way ;P)

PERFECT

5

Stunning work.

This is awesome, I'm able to

This is awesome, I'm able to play it pretty well, and it's almost the first time I've picked up a guitar (albeit I've been playing electric bass for a while) and it sounds amazing!

smiley

5

nice riff i love this song