Ads

Out of Phase (Parasite Eve) Guitar Tab

Submitted: Jun 08, 2012 by thedstring (Last updated: Jun 09, 2012)

5
Average: 5 (4 votes)
Download | Listen
Game: Parasite Eve
Composer(s): Yoko Shimomura
Style: Arrangement, Fingerstyle

AutoScroll: Slow | Medium | Fast
Out of Phase
Parasite Eve

Composed by Yoko Shimomura
Tabbed by Nate Brooks (thedstring)

Standard Tuning EADGBe
Capo fret 4

                                                        
 __Palm Mute____________________________________________________
---------3---------3---------3-|---------3---------3---------3-|
-0---1-------0-1-------0-1-----|-0---1-------0-1-------0-1-----|
-------------------------------|-------------------------------|
-------------------------------|-------------------------------|
-------------------------------|-------------------------------|
-------------------------------|-------------------------------|

                                                     
 __Palm Mute____________________________________________________
---------1---------1---------1-|---------1---------1---------1-|
-----0---------0---------0-----|-----0---------0---------0-----|
-2-----------2---------2-------|-2-----------2---------2-------|
-------------------------------|-------------------------------|
-------------------------------|-------------------------------|
-------------------------------|-------------------------------|

                                                     


---------3---------3---------3-|---------3---------3---------3-|
-0---1-------0-1-------0-1-----|-0---1-------0-1-------0-1-----|
-------------------------------|-------------------------------|
-2-----------------------------|-------2-------------------2---|
-0-----------0-----------------|-0-----------------------------|
-------------------------------|-------------------------------|

                                                     
---------1---------1---------1-|---------1---------1---------1-|
-----0---------0---------0-----|-----0---------0---------0-----|
-2-----------2---------2-------|-2-----------2---------2-------|
-0-----------------------------|-------0-------------------0---|
---------0---------------------|-0-----------------------------|
-1-----------1-1---------------|-------------------------------|

                                                     
                                                    
---------3---------3---------3-|---------3---------3---------3-|
-0---1-------0-1-------0-1-----|-0---1-------0-1-------0-1-----|
-------------------------------|-------------------------------|
-------------------------------|-------2-------------------2---|
-0-----------0-0---------------|-0-----------------------------|
-------------------------------|-------------------------------|
                                                 
                                                     
---------1---------1---------1-|---------1---------1---------1-|
-----0---------0---------0-----|-----0---------0---------0-----|
-2-----------2---------2-------|-2-----------2---------2-------|
-------------------------------|-------0-------------------0---|
-0-------------0---------------|-0-----------------------------|
---------1---------------------|-------------------------------|

                                                     
This part gets tricky, the recording doesn't show it,but you should
do a rasgueado wherever I put "rasg" instead of just strumming it.
The recording doesn't show it cause I couldn't get Guitar Pro
to sound right.

                          "rasg"                    
--0-----0-----0-----------0--0--0-----0-------------|
--1-----1-----1-----------1--1--1-----1-------------|
--2-----2-----2-----------2--2--2-----2-------------|
--5-----5-----5-----------5--5--5-----5-------------|
----------------------------------------------------|
----------------------------------------------------|

                          "rasg"                    
--0-----0--0--0-----------0--0--0-----0-------------|
--1-----1--1--1-----------1--1--1-----1-------------|
--2-----2--2--2-----------2--2--2-----2-------------|
--5-----5--5--5-----------5--5--5-----5-------------|
----------------------------------------------------|
----------------------------------------------------|

                          "rasg"                    
--1-----1-----1-----------1--1--1-----1-------------|
--1-----1-----1-----------1--1--1-----1-------------|
--2-----2-----2-----------2--2--2-----2-------------|
--2-----2-----2-----------2--2--2-----2-------------|
----------------------------------------------------|
----------------------------------------------------|

                          "rasg"                    
--8-----8--8--8-----------8--8--8-----8-------------|
--10----10-10-10----------10-10-10----10------------|
--10----10-10-10----------10-10-10----10------------|
--0-----0--0--0-----------0--0--0-----0-------------|
----------------------------------------------------|
----------------------------------------------------|

                          "rasg"                    
--0-----0-----0-----------0--0--0-----0-------------|
--1-----1-----1-----------1--1--1-----1-------------|
--2-----2-----2-----------2--2--2-----2-------------|
--5-----5-----5-----------5--5--5-----5-------------|
--0-----------------------0-------------------------|
----------------------------------------------------|

                          "rasg"                    
--0-----0--0--0-----------0--0--0-----0-------------|
--1-----1--1--1-----------1--1--1-----1-------------|
--2-----2--2--2-----------2--2--2-----2-------------|
--5-----5--5--5-----------5--5--5-----5-------------|
--0-----------------------0-------------------------|
----------------------------------------------------|

                          "rasg"                    
--1-----1-----1-----------1--1--1-----1-------------|
--1-----1-----1-----------1--1--1-----1-------------|
--2-----2-----2-----------2--2--2-----2-------------|
--2-----2-----2-----------2--2--2-----2-------------|
--x-----x-----x-----------x--x--x-----x-------------|
--1-----------------------1-------------------------|
  ^hold fret 1 with thumb ^

                                     Here's the lead 
                                     part, pay close 
                                     attention to the
                                     top || note 
                                         ||
                                         \/
--8-----8--8--8-----------8--8--8-------------------|
--10----10-10-10----------10-10-10-------0----------|
--10----10-10-10----------10-10-10----------5-------|
--0-----0--0--0-----------0--0--0-------------------|
----------------------------------------------------|
----------------------------------------------------|

                                                     
----------------------------------------------------|
--8-----8--8--x--x--5-----5--5--x--x--5-----x--x----|
--5-----5--5--x--x--5-----5--5--x--x--5-----x--x----|
--5-----5--5--x--x--5-----5--5--x--x--5-----x--x----|
--0-----0--0--x--x--0-----0--0--x--x--0-----x--x----|
----------------------------------------------------|

                                                     
----------------------------------------------------|
--5-----5--5--x--x--5-----5--5--x--x--------0-------|
--5-----5--5--x--x--5-----5--5--x--x-----2----------|
--5-----5--5--x--x--5-----5--5--x--x----------------|
--0-----0--0--x--x--0-----0--0--x--x----------------|
----------------------------------------------------|

                                                     
--1-----1--1--x--x----------------------------------|
--0-----0--0--x--x--3-----3--3--x--x--3-----x--x----|
--2-----2--2--x--x--2-----2--2--x--x--2-----x--x----|
--0-----0--0--x--x--0-----0--0--x--x--0-----x--x----|
--0-----0--0--x--x--0-----0--0--x--x--0-----x--x----|
--1-----1--1--x--x--1-----1--1--x--x--1-----x--x----|

                                                     
--8-----8--8--x--x--8-----8--8--x--x--8-------------|
--10----10-10-x--x--10----10-10-x--x--10----0-------|
--10----10-10-x--x--10----10-10-x--x--10-------5----|
--0-----0--0--x--x--0-----0--0--x--x--0-------------|
----------------------------------------------------|
----------------------------------------------------|

                                                     
----------------------------------------------------|
--8-----8--8--x--x--5-----5--5--x--x--5-----x--x----|
--5-----5--5--x--x--5-----5--5--x--x--5-----x--x----|
--5-----5--5--x--x--5-----5--5--x--x--5-----x--x----|
--0-----0--0--x--x--0-----0--0--x--x--0-----x--x----|
----------------------------------------------------|

                                                     
----------------------------------------------------|
--5-----5--5--x--x--5-----5--5--x--x--------0-------|
--5-----5--5--x--x--5-----5--5--x--x-----2----------|
--5-----5--5--x--x--5-----5--5--x--x----------------|
--0-----0--0--x--x--0-----0--0--x--x----------------|
----------------------------------------------------|

                                                     
--1-----1--1--x--x----------------------------------|
--0-----0--0--x--x--3-----3--3--x--x--3-----x--x----|
--2-----2--2--x--x--2-----2--2--x--x--2-----x--x----|
--0-----0--0--x--x--0-----0--0--x--x--0-----x--x----|
--0-----0--0--x--x--0-----0--0--x--x--0-----x--x----|
--1-----1--1--x--x--1-----1--1--x--x--1-----x--x----|

                                                     
--8-----8--8--x--x--8-----8--8--x--x--8-------------|
--10----10-10-x--x--10----10-10-x--x--10----0-------|
--10----10-10-x--x--10----10-10-x--x--10-------5----|
--0-----0--0--x--x--0-----0--0--x--x--0-------------|
----------------------------------------------------|
----------------------------------------------------|

                                                     
----------------------------------------------------|
--8-----8--8--x--x--5-----5--5--x--x--5-----x--x----|
--5-----5--5--x--x--5-----5--5--x--x--5-----x--x----|
--5-----5--5--x--x--5-----5--5--x--x--5-----x--x----|
--0-----0--0--x--x--0-----0--0--x--x--0-----x--x----|
----------------------------------------------------|

                                                     
----------------------------------------------------|
--5-----5--5--x--x--5-----5--5--x--x--------0-------|
--5-----5--5--x--x--5-----5--5--x--x-----2----------|
--5-----5--5--x--x--5-----5--5--x--x----------------|
--0-----0--0--x--x--0-----0--0--x--x----------------|
----------------------------------------------------|

                                                     
--1-----1--1--x--x----------------------------------|
--0-----0--0--x--x--3-----3--3--x--x--3-----x--x----|
--2-----2--2--x--x--2-----2--2--x--x--2-----x--x----|
--0-----0--0--x--x--0-----0--0--x--x--0-----x--x----|
--0-----0--0--x--x--0-----0--0--x--x--0-----x--x----|
--1-----1--1--x--x--1-----1--1--x--x--1-----x--x----|

                                                     
--8-----8--8--x--x--8-----8--8--x--x--8-----x--x----|
--10----10-10-x--x--10----10-10-x--x--10----x--x----|
--10----10-10-x--x--10----10-10-x--x--10----x--x----|
--0-----0--0--x--x--0-----0--0--x--x--0-----x--x----|
----------------------------------------------------|
----------------------------------------------------|

                                                     
---------3---------3---------3-|---------3---------3---------3-|
-0---1-------0-1-------0-1-----|-0---1-------0-1-------0-1-----|
-------------------------------|-------------------------------|
-2-----------------------------|-------2-------------------2---|
-0-----------0-----------------|-0-----------------------------|
-------------------------------|-------------------------------|

                                                     
---------1---------1---------1-|---------1---------1---------1-|
-----0---------0---------0-----|-----0---------0---------0-----|
-2-----------2---------2-------|-2-----------2---------2-------|
-0-----------------------------|-------0-------------------0---|
---------0---------------------|-0-----------------------------|
-1-----------1-1---------------|-------------------------------|

   Arpeggio          Arpeggio        hold
|--(-3------------|--(-1-----------|--(1)------------||
|--)-1------------|--)-0-----------|--(0)------------||
|--(-0------------|--(-2-----------|--(2)------------||
|--)-2------------|--)-0-----------|--(0)------------||
|--(-0------------|--(-0-----------|--(0)------------||
|-----------------|--)-1-----------|--(1)------------||
Login or Register to remove this ad.

5 comments on Out of Phase

Out of Phase (fixed)

Updated

Updated

The rhythmic section is

The rhythmic section is pretty difficult for me, it will take some practice to get down. This arrangement sounds really cool though, good job

I hope the mp3 I made helps,

I hope the mp3 I made helps, the part where it starts strumming faster is my favorite part of the song

I like this song a lot.

I like this song a lot.