Login or Register to remove this ad.

Missing Perspective (Parasite Eve) Guitar Tab

Submitted: Jun 21, 2009 by zen03y

5
Average: 5 (3 votes)
Download | Listen
Game: Parasite Eve
Composer(s): Yoko Shimomura
Style: Transcription

AutoScroll: Slow | Medium | Fast
Title:    Missing Perspective
Game:     Parasite Eve (PSX)
Composer: Yoko Shimomura
Tabbed by zen03y on 6/20/09
My first (TXT) Tab EVER! YAY!
Easy Mode


Standard Tuning


------------Melody

e |---6---4-------------------6---4-----------------|
B |--------------6--4--3-----------------6--4--3----|
G |-5---5----5-5------------5---5----5-5------------|
D |-------------------------------------------------|
A |-------------------------------------------------|
E |-------------------------------------------------|


e |---4---3-------------------4---3-----------------|
B |--------------6--4--3-----------------6--4--3----|
G |-3---3----3-3------------3---3----3-3------------|
D |-------------------------------------------------|
A |-------------------------------------------------|
E |-------------------------------------------------|

------------BG

e |-------------------------------------------------|
B |-----1------1------1------1----------------------|
G |-0-3----0-3----0-3----0-3------------------------|
D |-------------------------------------------------|
A |-------------------------------------------------|
E |-------------------------------------------------|


e |-------------------------------------------------|
B |-------------------------------------------------|
G |---1-3----1-3----1-3----1-3----------------------|
D |-3------3------3------3--------------------------|
A |-------------------------------------------------|
E |-------------------------------------------------|

Login or Register to remove this ad.

3 comments on Missing Perspective

Tanimax

5

Never played the game, but the song is great, and your tab is spot on. ^_^

Congrats

5

Is this your first tab ever? Or just on notepad? Either way you got the melody down! It brings me back to shooting those funny looking boomerang carrying monkeys.

First of any song? XD I tried

First of any song? XD I tried to make my own song on GP but I got bored.