Ads

I Hear A Voice Asking Me To Awaken (Parasite Eve) Guitar Tab

Submitted: May 05, 2017 by Kabukibear (Last updated: May 05, 2017)

5
Average: 5 (2 votes)
Download | Listen
Game: Parasite Eve
Composer(s): Yoko Shimomura
Style: Arrangement, Transcription

This song is also called Sleepers, Awake

AutoScroll: Slow | Medium | Fast
I Hear A Voice Asking Me To Awaken (Sleepers Awake)                        
~Parasite Eve~
Composed By: J.S. Bach
Arranged By: Yoko Shimomura
Transcribed By: Justin Lincoln

(Capo 1)



     Tap nails on guitar body                                         
                            T T T T     T T T T     T T T T           
                            X X X X E.  X X X X E.  X X X X E.  Q     
E||------------------------------------------------------------------|
B||-------------------------x-x-x-x-----x-x-x-x-----x-x-x-x----------|
G||-------------------------------------------------------------2----|
D||------------------------------------------------------------------|
A||------------------------------------------------------------------|
E||------------------------------------------------------------------|

    ^                       ^                      ^          ^          
    E  E  Q    Q    Q       Q    Q    Q    Q       E  E  Q    Q    Q     
|---------2----2----0----|--3----2--------------|--2--------------------|
|---3--5-----------------|--3-------------------|-----3--5--------------|
|*--2--------------------|--2---------2----0----|--0----------0---------|
|*--4--------------------|--0-------------------|--0----------2----4----|
|------------------------|----------------------|--0--------------------|
|---2----------3---------|----------------------|-----------------------|

 1st Ending ----------,    2nd Ending --------
  ^                       ^                     ^                     
  Q    H        Q         Q    H        Q       H        E  E  E  E   
----------------------||----------------5----|--5--------3--2--------|
--2----3--------------||--2----3-------------|--3--------------5--3--|
----------------2----*||---------------------|-----------------2-----|
--0------------------*||--0------------------|--4--------------------|
----------------------||---------------------|-----------------------|
--2-------------------||--2------------------|-----------------------|


  ^                ^        ^           ^              ^                   
  E  E  E  E  Q    E  E     E  E  E  E  E  E  E  E     Q    H        Q     
--0----------------------|-----0--2--0--3--2--0-----|--2----0-------------|
-----3--2--0-------0--2--|--3-----3-----2--------3--|--3------------------|
--0-----------2----2-----|--------------------------|--2-------------2----|
-------------------2-----|--4-----------2-----------|---------------------|
--0----------------------|--------------------------|--0------------------|
-------------------------|--------------------------|---------------------|


  ^                      ^          ^            ^         ^          
  Q    Q    Q    Q       E  E  Q    Q    Q       Q    Q    Q    Q     
--2----4---------5----|-----------------------|--4----5---------7----|
----------------------|--3--2--3----0----0----|--0---------3---------|
--2-------------------|-----------------------|----------------------|
--0-------------------|--4----------0---------|--2---------4---------|
------------4---------|--2--------------------|----------------------|
----------------------|-----------------------|----------------------|


  ^          ^             ^          ^              ^           ^            
  E  E  Q    Q     Q       E  E  Q    E  E   Q       E  E  E  E  E  E  E  E   
--0-----0---------10----|--9--7--5----------------|-----4--2--0--------------|
-----3-------0----------|----------------9--10----|--2-----------3--2--0-----|
------------------------|--9----------7-----------|-----------------------2--|
--2---------------------|--7----------9-----------|--4-----------2-----------|
-------------7----------|--0----------------------|--------------2-----------|
--4---------------------|-------------------------|--------------------------|


  ^          ^             ^           ^              ^         ^           
  E  E  Q    E  E  Q       E  E  E  E  E  E  E  E     Q    Q    Q    E  E   
------------------------|-----4--5--7--5--4--------|--5----0---------------|
--0--2--3-------2--3----|--0-----------------7--5--|--2---------2----------|
------------------------|--------------------------|------------2----4--2--|
--0----------4----------|--------------------------|--2---------2----------|
-------------2----------|--7-----------------------|------------4----------|
------------------------|--------------4-----------|-----------------------|


  ^           ^            ^         ^                    ^                  
                                              |--3--|                        
  E  E  E  E  Q    Q       Q.     E  S T T E  E  E  E     H.           Q     
------------------------|------------------------------|--------------------|
-----3--2--0--2---------|------------------------------|--------------------|
--2----------------2----|---------1--1-2-1-L--L-----1--|--2------------2----|
--4-----------2---------|--4---------0-----------4-----|--------------------|
--------------4---------|--5---------2-----------------|--4-----------------|
------------------------|------------------------------|--------------------|

    Gradually slow down -----------------------------------------------
    ^                       ^                      ^          ^          
    E  E  Q    Q    Q       Q    Q    Q    Q       E  E  Q    Q    Q     
|---------2----2----0----|--3----2--------------|--2--------------------|
|---3--5-----------------|--3-------------------|-----3--5--------------|
|*--2--------------------|--2---------2----0----|--0----------0---------|
|*--4--------------------|--0-------------------|--0----------2----4----|
|------------------------|----------------------|--0--------------------|
|---2----------3---------|----------------------|-----------------------|

-------------------------------------------------------------------
  ^                     ^                       ^                    
  Q    H        Q       E  E  Q    Q    Q       Q    Q    Q    Q     
---------------------|--------2----2----0----|--3----2--------------|
--2----3-------------|--3--5-----------------|--3-------------------|
----------------2----|--2--------------------|--2---------2----0----|
--0------------------|--4--------------------|--0-------------------|
---------------------|-----------------------|----------------------|
--2------------------|--2----------3---------|----------------------|

----------------------------------------------------------------
  ^          ^            ^                     ^                  
  E  E  Q    Q    Q       Q    H        Q       W                  
--2--------------------|----------------5----|--5----------------||
-----3--5--------------|--2----3-------------|--3----------------||
--0----------0---------|---------------------|-------------------||
--0----------2----4----|--0------------------|--4----------------||
--0--------------------|---------------------|-------------------||
-----------------------|--2------------------|-------------------||




Duration Legend
---------------
W - whole
H - half
Q - quarter
E - 8th
S - 16th
T - 32nd
X - 64th
. - note dotted
|-n-|  - n-tuplets


Tablature Legend
----------------
L - tied note
x - dead note
g - grace note
(n) - ghost note
> - accentuded note
NH - natural harmonic
AH - artificial harmonic
TH - tapped harmonic
SH - semi harmonic
PH - pitch harmonic
h - hammer on
p - pull off
b - bend
br - bendRelease
pb - preBend
pbr - preBendRelease
brb - bendReleaseBend
\n/ - tremolo bar dip
\n - tremolo bar dive
-/n - tremolo bar Release up
/n\ - tremolo bar inverted dip
/n - tremolo bar return
-\n - tremolo bar Release down
S - shift slide
s - legato slide
/ -  slide into from below or out of upwards
\ -  slide into from above or out of downwards
~ - vibrato
W - wide vibrato
tr - trill
TP - tremolo picking
T - tapping
S - slap
P - pop
< - fade in
^ - brush up
v - brush down
Login or Register to remove this ad.