Ads

Ai Iro Otome (Parade Parade) Guitar Tab

Submitted: Jul 17, 2012 by daniel guerra c...

5
Average: 5 (1 vote)
Download | Listen
Game: Parade Parade
Composer(s): Yoko Asada
Style: 2 or more instruments, Transcription

This song is also called Main Theme

Click here for a video example.

AutoScroll: Slow | Medium | Fast
Song : Ai Iro Otome (by Yoko Asada)
Anime: Parade Parade
Cover: Daniel Guerra Caballero
Video: http://youtu.be/0QMezp1Mtzg
Date : July, 2012
Mail : [email protected]
web  : http://danielguerracaballero.blogspot.com

Guitar A: 
Intro
1--------------------------------------------------
2------------------------------------------(10)----
3-9/11-9-9/11-9-9/11-9--------11---12-11-12-14-----
4----------------------9-9/12----------------------
5--------------------------------------------------
6--------------------------------------------------

1---------------------------------------------------------
2---------------------------------------12-12/15-13-12-10-
3-9/11-9-9/11-9-9/11-9--------/14-12-11-------------------
4----------------------9-9/12-----------------------------
5---------------------------------------------------------
6---------------------------------------------------------

(0:46)
1-----------------------------------------------------
2-9/11-9-9/11--9-9/11---------------------------------
3-----------------------------------------------------
4-----------------------------------------------------
5-----------------------------------------------------
6-----------------------------------------------------

(1:00)
1-----------------------------------------------------
2-----------------------------------------------------
3-------/5--/9--/11---/16-----------------------------
4-----------------------------------------------------
5-3-2-------------------------------------------------
6-----------------------------------------------------



Solo
1--------------10---------------------------------------------
2-17-/17-12-12----13-10-12------------------------------------
3---------------------------12-12-12-12-12/14--12-12/16-14-12-
4-------------------------------------------------------------
5-------------------------------------------------------------
6-------------------------------------------------------------

1------------------------------------------------------------
2------------------------------------------------------------
3-----12-----------------------------------------------------
4-/14-----14-12-14-12----12----------------------------------
5---------------------14----14-12-14-12-/10-10/--/12\--------
6------------------------------------------------------------

End
1--------14-15-17-19----------------------------------
2-/17-17--------------/17-/17-/17\--------------------
3-----------------------------------------------------
4-----------------------------------------------------
5-----------------------------------------------------
6-----------------------------------------------------

Guitar B
Voice
1--------------------------------------------------
2--------------------------------------------------
3-9-9-11-12-14-12-11-9--9-9-9-7----7-9-------------
4-------------------------------10-----------------
5--------------------------------------------------
6--------------------------------------------------

1--------------------------------------------------
2--------------------------------------------------
3-11-9-8-9-11-11-12-11-12-11-/12-14-12-11----------
4--------------------------------------------------
5--------------------------------------------------
6--------------------------------------------------

1--------------------------------------------------
2----------------------10-10-10-10-10-12-10--------
3-9-9-11-12-14-12-11-9-----------------------------
4--------------------------------------------------
5--------------------------------------------------
6--------------------------------------------------

1--------------------------------------------------
2----------8-10-12---------------------------------
3-12-11-12---------11--11-11----11-11-9------------
4----------------------------12--------------------
5--------------------------------------------------
6--------------------------------------------------

1-----------------------------------------------------------------
2-----------------------------------------------------------------
3-----7-9-7----/9---/12-11-9----9-7---------7-9-11-9-8-8/11-11-16-
4-/10-------10----9----------9------10-9-10-----------------------
5-----------------------------------------------------------------
6-----------------------------------------------------------------

1-------------------------------------------------------------
2-8-10-12------8-8-10-12-12-13-12-10-------------------------
3---------9-12---------------------------11-------------------
4-------------------------------------12----------------------
5-------------------------------------------------------------
6-------------------------------------------------------------

1-------------------------------------------------------------
2-7-7-8-10-10-12-10-8-------------------------------/12-------
3------------------------9--9-9-11-14-12-11-9-11-11-----------
4---------------------10--------------------------------------
5-------------------------------------------------------------
6-------------------------------------------------------------

1-------------------------------------------------------------
2-8-10-/12--------8-8-10-12-12-13-12-10-----------------------
3----------9-12----------------------------11--11-11-12/16-14-
4---------------------------------------12--------------------
5-------------------------------------------------------------
6-------------------------------------------------------------

1-------------------------------------------------------------
2-8---/12-10---8-10-7-----------------------------------------
3---9-----------------7/9-------------------------------------
4-------------------------------------------------------------
5-------------------------------------------------------------
6-------------------------------------------------------------
Login or Register to remove this ad.