Ads

King of the Koopas (Paper Mario) Guitar Tab

Submitted: Jan 28, 2014 by SolidusArmor

0
Download | Listen
Game: Paper Mario
Composer(s): Yuka Tsujiyoko
Style: Transcription
Series: Mario

AutoScroll: Slow | Medium | Fast
-------------------------------------------------------------------------------
			   Paper Mario King Of The Koopas
-------------------------------------------------------------------------------
Tabbed by:SolidusArmor

Tuning:Standard



e|-------------------------------------9Let---8----7---------------|
B|-------------------------------------9Ring--8----7---------------|
G|--4----5----7----5----4------------------------------------------|
D|--4----5----7----5----4----7----9--------------------------------|
A|--2----3----5----3----2----7----9--------------------------------|
E|---------------------------5----7--------------------------------|

e|-----------------------------------------------------------------|
B|-----------------------------------------------------------------|
G|--4----5----7----5----4-----5-----7----5----4--------------------|
D|--4----5----7----5----4-----5-----7----5----4----7-----9---------|
A|--2----3----5----3----2-----3-----5----3----2----7-----9---------|
E|-------------------------------------------------5-----7---------|





************************************

| /   slide up
| \   slide down
| h   hammer-on
| p   pull-off
| ~   vibrato
| +   harmonic
| x   Mute note
| b   Bend
| pb  Pre-bend
| br  Bend release
| pbr Pre-bend release
| brb Bend release bend

************************************
Login or Register to remove this ad.