Ads

Hang in There, Peach! (Paper Mario) Guitar Tab

Submitted: Jul 23, 2021 by Jookington (Last updated: Aug 03, 2021)

5
Average: 5 (1 vote)
Download | Listen
Game: Paper Mario
Composer(s): Yuka Tsujiyoko
Style: Arrangement, Fingerstyle, Transcription
Series: Mario

AutoScroll: Slow | Medium | Fast
                                             Paper Mario - Hang in There, Peach!
                                               Composer: Tsujiyoko Yuka, 2000
                                                 Transcribed: Jookito, 2021
  

e|-----------------------------------------------------------------------------------------------------------------------------|
B|-----------0--------0--1--0--------0--------------------0--3--------1--0-----------------------------------------------------|
G|--------------------------------3--------------------3-----------------------------0-----------------------------------------|
D|--------------------------------------------------------------------------------4--------------------------------------------|
A|-----------------------------------------------------------------2-----------2-----------2-----------------------------------|
E|-0---------5-----0-----4-----0-----5-----0-----5-----5--4--2-----------1-----------2-----------2-----2--0--------------------|

e|-------------------------------------------------------------------------------------------------0---------------------------|
B|----------------------1--3-----------------------1--------------------------------------------------------1--0---------------|
G|----------0--2-----4-----------------0--------------------------0-----2--4--------------------------------------------2------|
D|-2-----4-----------------------------------------------------4---------------------------------------------------------------|
A|-3-----3-----3-----3--3--2-----2-----------------0-----------------------------2-----------------0---------------------------|
E|----------------------------------4--2-----4--5--------2-----0-----4-----2-----------0-----5-----------2-----0-----4---------|

e|-----------------------------------------------------------------------------------------------------------------------------|
B|-3--------0--------------------------------------3---------------------------------------------------------------------------|
G|-------------2--0-----------------0--2--4-----2------------------------------------------------------------------------------|
D|-------------------------2-----4---------------------------------------------------------------------------------------------|
A|-------------4-----L-----0-----0-----0-----2--3--------0---------------------------------------------------------------------|
E|-5-----0-----------------------------------------0-----------0-----4---------------------------------------------------------|

e|-----------------------------------------------------------------------------------------------------------------------------|
B|-0--------0--1--0--------0--------------------------3--------1--0------------------------------------------------------------|
G|----------------------3--------------------0-2--2-0-------------------------0------------------------------------------------|
D|---------------------------------0-2-4---4-------------------------------4--2-----------0-----2--0---------------------------|
A|---------------------------------------------------------2-----------2-----------2-------------------------------------------|
E|-5-----0-----4-----0-----5-----0-----5-------5--4---2-----------1-----------2-----------2-----2--0---------------------------|

e|-------------------------------------------------------------------------------------------------0---------------------------|
B|----------------------1--3-----------------------1--------------------------------------------------------1--0---------------|
G|----------0--2-----4-----------------0--------------------------0-----2--4---------0-2-----------2--------------------2------|
D|-2-----4-----------------------------------------------------4-----------2-------4---------------------------4---------------|
A|-3-----3-----3-----3--3--2-----2-----------------0-----------------------------2-----------------0---------------------------|
E|----------------------------------4--2-----4--5--------2-----0-----4-----2-----------0-----5-----------2-----0-----4---------|

e|-------------------0--2--3-----2--0--------------------0---------------------------------------------------------------------|
B|-3--------0--------------------------3--1-----0--3-----3-----------------0--------0--1--0--------0---------------------------|
G|-------------2--0--------0-----------------------2-----------2--------------------------------3--------------------0-2--2-0--|
D|-------------------2--4--------2-----------2-----------------0-----0--------------------------------------0-2-4--4-----------|
A|-------------4-----L-----0-----0-----0-----0-----------0--------------------5-----5-----5-----5-----5------------------------|
E|-5-----0-----------------------------------------0-----------0-----4-----5-----0-----4-----0-----5-----0------5------5--4----|

e|-------------------------------------------------0-----2--3--5-----------3-----------0-----------3-----------2-/3--------0---|
B|-3--------1--0-----------------------------------------------------0--1--3-----------------------1---------------------------|
G|-------------------------0--------------------------------0--2-----0-----------------0--------------------------------2--4---|
D|----2-----2-----1-----4--2--2-----2--0--2--2--0--2-----4-----------------------------------------------------4-/5------------|
A|-------2-----------2-----------2-----------------3-----3-----3-----3--3--2-----2-----------------0---------------------------|
E|-2-----------1-----------2-----------2-----2--0-----------------------------------4--2-----4--5--------2-----0-----4-----2---|

e|-2-----3-----2-----0-----2--3--5-/7-----5--3---3---3---0---0---0---3---3---3---2---2---2-----------------------7----10----15-|
B|-------------------------------------------3-3---3---3-0-0---0---0-1-1---1---1---3---3---3-----------------8-----------------|
G|----------------------------0--2-----4-----------------------------------------------------------------7---------------------|
D|-------------------2-----4-----------------------------------------------------4-----------4-------7-9-----------------------|
A|-2-----------------3-----3-----3-----------2-----------------------0-------------------------5---5---------------------------|
E|-------0-----5-----------------------------------------2-----------------------0---------------5-----------------------------|

                                         
                                           Transcribed Live at www.Twitch.tv/Jookito
Login or Register to remove this ad.

1 comment on Hang in There, Peach!

Tuning

5

This is supposed to be tuned to Drop D. I got too excited to triple check before submitting.