Ads

Goomba Village Theme (Paper Mario) Guitar Tab

Submitted: Jul 23, 2021 by Jookington (Last updated: Aug 03, 2021)

5
Average: 5 (2 votes)
Download | Listen
Game: Paper Mario
Composer(s): Yuka Tsujiyoko
Style: Arrangement, Fingerstyle, Transcription
Series: Mario

AutoScroll: Slow | Medium | Fast
                                                    Paper Mario - Goomba Village Theme
                                                      Composer: Tsujiyoko Yuka, 2000
                                                        Transcribed: Jookito, 2021
  

e|--------3--3-----2-----3--|--0-----------------------|--2--------------3--------|--2--------3--------------|--2--3--2--3--5--3--3-----|
B|--------------------------|--------1-----------------|--------------------------|--------------------------|--------------------------|
G|--------------------------|--------------------0-----|--------------------------|--------------------------|--------------------------|
D|--------2-----------2-----|--------2-----------2-----|--------2-----------2-----|--------2-----------2-----|--------2-----------2-----|
A|--3-----------3-----------|--3-----------3-----------|--3-----------3-----------|--3-----------3-----------|--3-----------3-----------|
E|-----------3-----------3--|-----------3-----------3--|-----------3-----------3--|-----------3-----------3--|-----------3-----------3--|

e|--------------------------|--------------------3-----|--------------------3-5-3-|--5--5--1--1--------------|--------------------------|
B|--------------------------|--------------------5-----|--------------------5-7-5-|--6--6--3--3--3--3--0--0--|--------------------------|
G|-----0-----0--2--0--0-----|--------------------------|--------------------------|--------------4--4--2--2--|--4-----L-----L-----L-----|
D|--4-----4-----------2-----|--------------------------|--------------------------|--------------------------|--5-----L-----L-----L-----|
A|--3-----7-----3-----------|--------------------------|--------------------------|--------------------------|--------------------------|
E|-----------3-----------3--|--2-----L-----3-----------|--2-----L-----3-----------|--------------------------|--------------3-----L-----|

e|--0-----------------------|--------------------------|--------------------1-----|--0-----------------------|--0-----------------------|
B|--------------1-----------|--------------------------|--------0-----3-----------|--------1-----------------|--------------1-----------|
G|--------------------0-----|--2-----5-----5-----------|--0-----------------------|--------------0-----------|--------------------0-----|
D|--------2-----------2-----|--------------------------|--------------------------|--------------------------|--------2-----------2-----|
A|--3-----------3-----------|--------3--3--------3--3--|--------2--2--------2--2--|--3-----------3-----------|--3-----------3-----------|
E|-----------3-----------3--|--1-----------1-----------|--3-----------3-----------|--------3--3--------3--3--|-----------3-----------3--|

e|--------------------------|--------------1--0--------|--0-----------------------|--------3--3-----2-----3--|--0-----------------------|
B|--------------------------|--------1-----------3-----|--1-----------1-----------|--------------------------|--------1-----------------|
G|--------2-----2-----2-----|--0-----------------------|--------------------------|--------------------------|--------------------0-----|
D|--3-----------------------|--------------------------|--------------------------|--------2-----------2-----|--------2-----------2-----|
A|--------3--3--------3--3--|--------2--2--------2--2--|--3-----------3-----------|--3-----------3-----------|--3-----------3-----------|
E|--1-----------1-----------|--3-----------3-----------|--------3--3--------3--3--|-----------3-----------3--|-----------3-----------3--|

e|--2--------------3--------|--2--------3--------------|--2--3--2--3--5--3--3-----|--------------------------|--------------------3-----|
B|--------------------------|--------------------------|--------------------------|--------------------------|--------------------5-----|
G|--------------------------|--------------------------|--------------------------|-----0-----0--2--0--0-----|--------------------------|
D|--------2-----------2-----|--------2-----------2-----|--------2-----------2-----|--4-----4-----------2-----|--------------------------|
A|--3-----------3-----------|--3-----------3-----------|--3-----------3-----------|--3-----7-----3-----------|--------------------------|
E|-----------3-----------3--|-----------3-----------3--|-----------3-----------3--|-----------3-----------3--|--2-----L-----3-----------|

e|--------------------3-5-3-|--5--5--1--1--------------|--------------------------|--0-----------------------|--------------------------|
B|--------------------5-7-5-|--6--6--3--3--3--3--0--0--|--------------------------|--------------1-----------|--------------------------|
G|--------------------------|--------------4--4--2--2--|--4-----L-----L-----L-----|--------------------0-----|--2-----5-----5-----------|
D|--------------------------|--------------------------|--5-----L-----L-----L-----|--------2-----------2-----|--------------------------|
A|--------------------------|--------------------------|--------------------------|--3-----------3-----------|--------3--3--------3--3--|
E|--2-----L-----3-----------|--------------------------|--------------3-----L-----|-----------3-----------3--|--1-----------1-----------|

e|--------------------1-----|--0-----------------------|--0-----------------------|--------------------------|--------------1--0--------|
B|--------0-----3-----------|--------1-----------------|--------1-----------------|--------------------------|--------1-----------3-----|
G|--0-----------------------|--------------0-----------|--------------------0-----|--------2-----2-----2-----|--0-----------------------|
D|--------------------------|--------------------------|--------2-----------2-----|--3-----------------------|--------------------------|
A|--------2--2--------2--2--|--3-----------3-----------|--3-----------3-----------|--------3--3--------3--3--|--------2--2--------2--2--|
E|--3-----------3-----------|--------3--3--------3--3--|-----------3-----------3--|--1-----------1-----------|--3-----------3-----------|

                                                      e|--0-----------------------|-|
                                                      B|--1-----------1-----------|o|
                                                      G|--------------------------|-|
                                                      D|--------------------------|-|
                                                      A|--3-----------3-----------|o|
                                                      E|--------3--3--------3--3--|-|

                                         
                                                Transcribed Live at www.Twitch.tv/Jookito
Login or Register to remove this ad.