Ads

Fallen Angel (Panty & Stocking with Garterbelt) Guitar Tab

Submitted: Nov 25, 2013 by cyx77 (Last updated: Dec 20, 2013)

5
Average: 5 (6 votes)
Download | Listen
Game: Panty & Stocking with Garterbelt
Composer(s): TCY Force
Style: Arrangement, Fingerstyle

This song is also called Ending Theme

AutoScroll: Slow | Medium | Fast
                                 Fallen Angel                                   
			 Composed By: Mitsunori Ikeda
			Arranged By: Gianfranco Addante 
Standard Tuning (Capo 4)



     E  E  E  E  E  E  E  E     E  E  E  E  E  E  E  E   
E||--------------------------|--------------------------|
B||--2-----2-----2-----2-----|--2-----2-----2-----2-----|
G||--2-----2-----2-----2-----|-----2-----2-----2-----2--|
D||-----4-----4-----4-----4--|--6--4--6--4--6--4--6--4--|
A||-----5-----5-----5-----5--|--------------------------|
E||--------------------------|-----2-----2-----2-----2--|


  E  E  E  E  E  E  E  E     E  E  E  E  E  E  E  E   
--------------------------|--------------------------|
--2-----2-----2-----2-----|--2-----2-----2-----2-----|
--2-----2-----2-----2-----|-----2-----2-----2-----2--|
-----4-----4-----4-----4--|--6--4--6--4--6--4--6--4--|
-----5-----5-----5-----5--|--------------------------|
--------------------------|-----2-----2-----2-----2--|


  E  E  E  E  E  E  E  E     E  E  E  E  E  E  E  E   
--------------------------|--------------------------|
--------2--------0-----0--|--------0-----0-----------|
--------2--------1-----1--|-----2-----2-----2--2-----|
-----4-----4--------------|-----------------2--2-----|
--5-----------------------|--------------0--------0--|
--------------0-----------|--2-----------------------|


  E  E  E  E  E  E  E  E     E  Q    E  E  E  E  E     E  E  E  E  E  E  E  E   
--------------------------|-------------------------|--------------------------|
--------2--------0-----0--|-------------------------|--------2--------0-----0--|
--------2--------1-----1--|-----2----1--------------|--------2--------1-----1--|
-----4-----4--------------|----------------4--4-----|-----4-----4--------------|
--5-----------------------|-------------0--------0--|--5-----------------------|
--------------0-----------|--2----------------------|--------------0-----------|


  E  E  E  E  E  E  E  E     E  E  E  E  E  E  E  E     E  E  E  E  E  E  Q     
--------------------------|--------------------------|--------------------4----|
--------0-----0--2--2-----|--2--------2--0-----------|-----------------2-------|
-----2--2--2-----2--2-----|--2--------2--1-----1--2--|-------------------------|
--------------------------|-----4--4--------2--------|--------6--4-------------|
--------------0--------0--|--5-----------------------|-----4--------0----------|
--2-----------------------|--------------0-----------|--2----------------------|


  E  E  Q    Q.     S S    E  E  E  S E.  E  E  S S    E  E  E  E  Q.     E   
--2-----4----2----------|--4--4--4--2-4---5--4--2-4-|-----5--4-----2---------|
--3--2--------------2-2-|--2-----2----2-------------|---------------------2--|
--2----------1----------|--2-----2----2-------------|-----------2--1---------|
--0---------------------|---------------------------|--0---------------------|
------------------------|-------------0-------------|------------------------|
-------------0----------|--2------------------------|--------------0---------|


  E  E  E  E  E  E  E  E     E  E  Q    Q.     S S    E  E  E  S E.  S S E  E   
--4--2--4--2--4--2-----2--|--------4----2----------|--4--4--4--2-4---5------4--|
--2-----2-----2-----2-----|-----2--2-----------2-2-|--2-----2----2-------2-----|
--2-----2-----2-----------|-------------1----------|--2-----2----2-------------|
--------------------------|--0---------------------|---------------------------|
--------------0-----------|------------------------|-------------0-----0-------|
--2-----------------------|-------------0----------|--2------------------------|


  E  E  E  E  E  E  E.  S    E  S S E  E  E  E  Q     
--2-----0-----0-----------|--------------------------|
-----2-----2-----2--0-----|--0--0-0-0--2--0----------|
--2-----------1---------2-|--------------------------|
--0-----------------------|--4---------------4--4----|
--------------------------|---------------0----------|
--------------0-----------|--2-----------------------|


  E  E  E  S E  S S E.  S S    E  E  E  E  E  E  E  E          
----------------------------|--------------------------|-----||
--2-----2----0--0-0---------|--2-----2-----2-----2-----|-----||
--2-----2----1------2-------|-----2-----2-----2-----2--|-----||
-----4-----4-L----------4-2-|--6--4--6--4--6--4--6--4--|-----||
-----5-----5-L--------------|--------------------------|-----||
-------------0--------------|-----2-----2-----2-----2--|-----||




Duration Legend
---------------
W - whole
H - half
Q - quarter
E - 8th
S - 16th
T - 32nd
X - 64th
. - note dotted
|-n-|  - n-tuplets


Tablature Legend
----------------
L - tied note
x - dead note
g - grace note
(n) - ghost note
> - accentuded note
NH - natural harmonic
AH - artificial harmonic
TH - tapped harmonic
SH - semi harmonic
PH - pitch harmonic
h - hammer on
p - pull off
b - bend
br - bendRelease
pb - preBend
pbr - preBendRelease
brb - bendReleaseBend
\n/ - tremolo bar dip
\n - tremolo bar dive
-/n - tremolo bar Release up
/n\ - tremolo bar inverted dip
/n - tremolo bar return
-\n - tremolo bar Release down
S - shift slide
s - legato slide
/ -  slide into from below or out of upwards
\ -  slide into from above or out of downwards
~ - vibrato
W - wide vibrato
tr - trill
TP - tremolo picking
T - tapping
S - slap
P - pop
< - fade in
^ - brush up
v - brush down
Login or Register to remove this ad.

2 comments on Fallen Angel

Pretty good. I don't watch

5

Pretty good. I don't watch PS&G but I love the soundtrack.
One thing I'd note though, the section in bar 2 could do without the -2- played on the B string: the main notes are the -6- and -2- on D and G, and when you add the -2- on B into it, it detracts from the -6- on G. Also, it's quite hard to describe tab by just typing.

To me anyway, the main notes are the ones here in [-]


E||--------------------------|--------------------------|
B||-[2]---[2]---[2]---[2]----|--------------------------|
G||--2-----2-----2-----2-----|----[2]---[2]---[2]---[2]-|
D||----[4]---[4]---[4]---[4]-|-[6]-4-[6]-4-[6]-4-[6]-4--|
A||-----5-----5-----5-----5--|--------------------------|
E||--------------------------|-----2-----2-----2-----2--|

Over all though, nice tab :)

Haha, I know

The thing is, I originally had it the way you suggested and there's just something odd about those 2nd and 4th bars when you take the notes out. Whatever part of the music I try to emphasize ends up drowning out the secondary sound (it feels like there are two competing parts you have to play at the same time almost)

I appreciate the alternative suggestion though and I think it's probably better for guitarists. It's a slightly different sound when you do it your way but you can argue it sounds better and at the very least, it's certainly more reasonable to play.

Thanks for the feedback; I'm in no way a fantastic arranger. I'm still learning but I'm getting better and learning where you can simplify parts to avoid blocky shaping. I appreciate the support.