Ads

CHOCOLAT (Panty & Stocking with Garterbelt) Guitar Tab

Submitted: Dec 30, 2010 by Cerulean Blue

5
Average: 5 (1 vote)
Download | Listen
Game: Panty & Stocking with Garterbelt
Composer(s): TCY Force
Style: Transcription

AutoScroll: Slow | Medium | Fast
Name of song:  Chocolat
Name of game:  Panty & Stocking
Composer of song:  TCY FORCE
Name of tabber:  Cerulean Blue
Date tab was made:  12/28/2010

Here is the order the sections are played:

A B C A B C D A B (The last B is only played once)




Section A - Play 2x
=========================================

                      3x
e---------------|------------
B------------10-|---------10-
G---------9-----|------------
D-----10--------|-----10-----
A--8------------|--8---------
E---------------|------------

                   3x
e-------------|----------
B-----------8-|--------8-
G--------7----|----------
D-----9-------|-----9----
A--7----------|--7-------
E-------------|----------

                   3x
e-------------|----------
B-----------6-|--------6-
G--------5----|----------
D-----7-------|-----7----
A--5----------|--5-------
E-------------|----------

                   2x
e-------------|----------|------------
B-----------6-|--------6-|--6/8-----8-
G--------5----|----------|------------
D-----7-------|-----7----|-------9----
A--5----------|--5-------|--5/7-------
E-------------|----------|------------

=========================================




Section B - Play 2x
=========================================

                      3x
e---------------|------------
B------------10-|---------10-
G---------9-----|------------
D-----10--------|-----10-----
A--8------------|--8---------
E---------------|------------

                   3x
e-------------|----------
B-----------8-|--------8-
G--------7----|----------
D-----9-------|-----9----
A--7----------|--7-------
E-------------|----------

                   3x
e-------------|----------
B-----------6-|--------6-
G--------5----|----------
D-----7-------|-----7----
A--5----------|--5-------
E-------------|----------

                   3x
e-------------|----------|
B-----------6-|--------6-|
G--------5----|----------|
D-----7-------|-----7----|
A--5----------|--5-------|
E-------------|----------|

=========================================




Section C - Play 2x
=========================================

                   3x
e-----------7-|--------7-
B--------8----|----------
G-----9-------|-----9----
D--7----------|--7-------
A-------------|----------
E-------------|----------

                   3x
e-----------7-|--------7-
B--------8----|----------
G-----7-------|-----7----
D--5----------|--5-------
A-------------|----------
E-------------|----------

                      3x
e---------------|------------
B------------10-|---------10-
G---------9-----|------------
D-----10--------|-----10-----
A--8------------|--8---------
E---------------|------------

                   3x
e-------------|----------
B-----------8-|--------8-
G--------7----|----------
D-----9-------|-----9----
A--7----------|--7-------
E-------------|----------

                      3x
e-------------|----------
B-----------6-|--------6-
G--------5----|----------
D-----7-------|-----7----
A--5----------|--5-------
E-------------|----------

                   3x
e-------------|----------
B-----------8-|--------8-
G-------------|----------
D--------9----|-----9----
A--5-/7-------|--7-------
E-------------|----------

                      3x
e---------------|------------
B------------10-|---------10-
G---------9-----|------------
D-----10--------|-----10-----
A--8------------|--8---------
E---------------|------------


e---5----7----8-----7-
B---5----7----10----7-
G---5----8----9-----7-
D---7----9----10----9-
A---------------------
E---------------------

=========================================




Section D - Play 2x
=========================================

                      3x
e---------------|------------
B------------10-|---------10-
G---------9-----|------------
D-----10--------|-----10-----
A--8------------|--8---------
E---------------|------------

                   3x
e-------------|----------
B-----------8-|--------8-
G--------7----|----------
D-----9-------|-----9----
A--7----------|--7-------
E-------------|----------

                   3x
e-------------|----------
B-----------6-|--------6-
G--------5----|----------
D-----7-------|-----7----
A--5----------|--5-------
E-------------|----------

                   2x
e-------------|----------|-------------
B-----------6-|--------6-|-----8-----8-
G--------5----|----------|-------------
D-----7-------|-----7----|--------9----
A--5----------|--5-------|--7----------
E-------------|----------|-------------

=========================================

/ - slide up
Login or Register to remove this ad.

1 comment on CHOCOLAT

Whoa, a PSG tab already?

Whoa, a PSG tab already?