Ads

Snowscape (PangYa) Guitar Tab

Submitted: Mar 15, 2020 by H.F. (Last updated: Mar 26, 2020)

0
Download | Listen
Game: PangYa
Composer(s): Ampsound
Style: 2 or more instruments, Fingerstyle

AutoScroll: Slow | Medium | Fast
Title: Snowscape
SubTitle: from PangYa
Music: SoundTeMP
Tabber: H.F.
Tempo = 132

Legend
L - tied note


Guitar 1

E |----------|----------|----------|----------|----------------------------|
B |----------|----------|----------|----------|--------5--6--8L------------|
G |----------|----------|----------|----------|----------------------------|
D |----------|----------|----------|----------|----------------------------|
A |----------|----------|----------|----------|----------------------------|
E |----------|----------|----------|----------|----------------------------|


----------|--------------------5-------|----------|----------------------------|
--8-------|-----5--6--8L-8--------8L---|--8-------|-----5--6--8L-8-------------|
----------|----------------------------|----------|----------------------------|
----------|----------------------------|----------|----------------------------|
----------|----------------------------|----------|----------------------------|
----------|----------------------------|----------|----------------------------|


----------|--------------------8-------|----------||---------------------------|
----------|-----5--6--8L-8--------8L---|--8-------||-------------5--6--8--8L---|
----------|----------------------------|----------||o------5--7----------------|
----------|----------------------------|----------||o--------------------------|
----------|----------------------------|----------||---------------------------|
----------|----------------------------|----------||---------------------------|


-----5----------------------|----------|----------|----------------------------|
--8-------------------------|----------|----------|-----------5L-5--6--8--8L---|
-----------5L-5--4--5-------|----------|----------|-----5--7-------------------|
-----------------------5L---|--5-------|----------|----------------------------|
----------------------------|----------|----------|----------------------------|
----------------------------|----------|----------|----------------------------|


-----5----------------------|----------------------------|----------|
--8-------------------------|----------------------------|----------|
-----------5L-5--4--5--7----|----------------------------|----------|
----------------------------|-----5L-5L----5-------------|----------|
----------------------------|----------------------------|----------|
----------------------------|----------------------------|----------|


----------------------------|-----5L-5--7L-7--8L-8--7L---|
-----------5L-5-------------|----------------------------|
--------5--------7--5-------|----------------------------|
-----7----------------------|----------------------------|
----------------------------|----------------------------|
----------------------------|----------------------------|


--7--------------5----------|----------------------------|
--------8--8L-8-----8L------|--8--------------------8L---|
----------------------------|----------------------------|
----------------------------|----------------------------|
----------------------------|----------------------------|
----------------------------|----------------------------|


----------------------------|----------------------------|
--8--6--5--6L-6--8-----6L---|--6--5----------------------|
----------------------------|-----------5L-5-----5--5L---|
----------------------------|-----------------7----------|
----------------------------|----------------------------|
----------------------------|----------------------------|


----------------------------|------|||
----------------------------|------|||
--5--------------4--5--7L---|--7--o|||
----------------------------|-----o|||
----------------------------|------|||
----------------------------|------|||

************************************************************
************************************************************

Guitar 2

E |--------0-----3--------1L---|--1-------------------------|
B |--------1-----2--------1L---|--1--------1--1-----3-------|
G |--------0-----2--------2L---|--2--------2--2-----2-------|
D |-----------------------0L---|--0--------3--3-----3-------|
A |--------3-----0-------------|-----------------------2----|
E |----------------------------|-----------3----------------|


--------0-----3--------1L---|--1-------------------------|
--------1-----2--------1L---|--1--------1L-1-----3-------|
--------0-----2--------2L---|--2--------2L-2-----2-------|
-----------------------0L---|--0--------3L-3-----3-------|
--3--------0----------------|-----------------------2----|
----------------------------|-----------3L-3-------------|


--------0-----3--------1L---|--1-------------------------|
--------1-----2--------1L---|--1--------1--1-----3-------|
--------0-----2--------2L---|--2--------2--2-----2-------|
-----------------------0L---|--0--------3--3-----3-------|
-----3--------0-------------|-----------------------2----|
----------------------------|-----------3----------------|


--------0-----3--------1L---|--1-------------------------|
--------1-----2--------1L---|--1--------1--1-------------|
--------0-----2--------2L---|--2--------2--2-------------|
-----------------------0L---|--0--------3--3-------------|
--3--------0----------------|----------------------------|
----------------------------|-----------3----------------|


--------0-----3--------1L---|--1-------------------------|
--------1-----2--------1L---|--1--------1--1-----3-------|
--------0-----2--------2L---|--2--------2--2-----2-------|
-----------------------0L---|--0--------3--3-----3-------|
--3-----------0-------------|-----------------------2----|
----------------------------|-----------3----------------|


--------0-----3--------1L---|--1--------3L-3-------------||
--------1-----2--------1L---|--1--------1L-1-------------||
--------0-----2--------2L---|--2--------2L-2-------------||
-----------------------0L---|--0-------------------------||
--3--------0----------------|----------------------------||
----------------------------|-----------3L-3-------------||


-------0-----3--------1L---|--1-------------------------|
-------1-----2--------1L---|--1--------1--1-----3-------|
o------0-----2--------2L---|--2--------2--2-----2-------|
o---------------------0L---|--0--------3--3-----3-------|
-------3-----0-------------|-----------------------2----|
---------------------------|-----------3----------------|


--------0-----3--------1L---|--1-------------------------|
--------1-----2--------1L---|--1--------1--1-------------|
--------0-----2--------2L---|--2--------2--2-------------|
-----------------------0L---|--0--------3--3-------------|
--3--------0----------------|----------------------------|
----------------------------|-----------3----------------|


--------0-----3--------1L---|--1-------------------------|
--------1-----2--------1L---|--1--------1L-1-----3-------|
--------0-----2--------2L---|--2--------2L-2-----2-------|
-----------------------0L---|--0--------3L-3-----3-------|
--3-----------0-------------|-----------------------2----|
----------------------------|-----------3----------------|


--------0-----3--------1L---|--1--------3L-3-------------|
--------1-----2--------1L---|--1--------1L-1-------------|
--------0-----2--------2L---|--2--------2L-2-------------|
-----------------------0L---|--0-------------------------|
--------3-----0-------------|----------------------------|
----------------------------|-----------3L-3-------------|


--0-----0--------0-----0L---|--0-----0--------0L-0-------|
--1-----1--------1-----1L---|--1-----1--------1L-1--3L---|
--2-----2--------2-----2L---|--2-----2--------2L-2--4L---|
----------------------------|-----------------------5L---|
----------------------------|----------------------------|
--1--------------1-----1L---|--1--------------1L-1--0L---|


----------------------------|----------------------------|
--3-----3--------3-----3L---|--3--------2L-2L----2--1L---|
--4-----4--------4-----4L---|--4--------3L-3L----3--2L---|
--5-----5--------5-----5L---|--5--------5L-5L----5--3L---|
-----------------------0L---|--0--------0L-0L----0--5L---|
--0--------------0----------|----------------------------|


----------------------------|----------------------------|
--1--------1-----0-----1L---|--1--------1-----3-----1L---|
--2--------2-----2-----2L---|--2--------2-----2-----2L---|
--3--------3-----3-----0L---|--0--------3-----3-----3L---|
--5--------------0----------|-----------------0----------|
----------------------------|-----------------------3L---|


----------------------------|---------------------------|||
--1--------------------3L---|--3--------5L-5------------|||
--2--------------------2L---|--2--------4L-4-----------o|||
--3--------------------3L---|--3--------3L-3-----------o|||
----------------------------|--------5------------------|||
--3-------------------------|-----3---------------------|||

Login or Register to remove this ad.