Ads

Lacie (Pandora Hearts) Guitar Tab

Submitted: Jun 29, 2009 by kenor (Last updated: Feb 04, 2010)

5
Average: 5 (5 votes)
Download | Listen
Game: Pandora Hearts
Composer(s): Yuki Kajiura
Style: Arrangement, Fingerstyle

AutoScroll: Slow | Medium | Fast
Lacie
~Pandora Hearts~ 
Composed by: Yuki Kajiura
Arranged by: kenor

Rhytm: 3/4 metrum
Tab is written an octave lower than the original song.

     E  E  E  E  E  E     Q    Q    Q       E  E  Q    Q       H        Q
E||--------------------|-------0---------|------------------|----------------|
B||--6--5-----5--6--8--|--5--------------|--3--5--3---------|----------------|
G||--7-----7-----------|--5---------5----|--3----------5----|--5-------------|
D||--------------------|-----------------|------------------|--7--------7----|
A||--------------------|-----------------|------------------|----------------|
E||--------------------|-----------------|------------------|----------------|

 
     E  E  E  E  E  E     Q    Q    Q       Q    Q    Q       Q    Q    Q
E||--------------------|-------0---------|-------1----3----|--5---------3----|
B||--6--5-----5--6--8--|--5--------------|--3---------5----|--6---------5----|
G||--7-----7-----------|--5---------5----|--3--------------|-------5---------|
D||--------------------|-----------------|-----------------|-----------------|
A||--------------------|-----------------|-----------------|-----------------|
E||--------------------|-----------------|-----------------|-----------------|


     E  E  E  E  E  E     Q    Q    Q       E  E  Q    Q       H        Q
E||--------------------|-------0---------|------------------|----------------|
B||--6--5-----5--6--8--|--5--------------|--3--5--3---------|----------------|
G||--7-----7-----------|--5---------5----|--3----------5----|--5--------5----|
D||--------------------|-----------------|------------------|--7-------------|
A||--------------------|-----------------|------------------|----------------|
E||--------------------|-----------------|------------------|----------------|


     Q    Q    Q       Q    Q    Q       Q    Q    Q        H.
E||-----------------|-----------------|-----------------|-------|
B||--3----5----6----|--5--------------|--3--------------|-------|
G||--3---------3----|--5---------5----|--0----2---------|-------|
D||-----------------|-------5---------|------------2----|---3---|
A||-----------------|-----------------|-----------------|---5---|
E||-----------------|-----------------|-----------------|-------|


     E  E  E  E  E  E     Q    Q    Q       Q    Q    Q       Q    Q    Q 
E||--------------------|-----------------|-----------------|-----------------|
B||--4--3-----3--4--6--|--3----3---------|-------4----6----|--8---------6----|
G||--5-----5-----------|--3---------3----|--5---------7----|--8---------7----|
D||--------------------|-----------------|--6--------------|-------8---------|
A||--------------------|-----------------|-----------------|-----------------|
E||--------------------|-----------------|-----------------|-----------------|


     E  E  E  E  E  E     Q    Q    Q       E  E  Q    Q       H        Q
E||--------------------|-----------------|------------------|----------------|
B||--4--3-----3--4--6--|--3----3---------|--1--3--1---------|----------------|
G||--5-----5-----------|--3---------3----|--1----------3----|--3--------3----|
D||--------------------|-----------------|------------------|----------------|
A||--------------------|-----------------|------------------|--6-------------|
E||--------------------|-----------------|------------------|----------------|

 
     E  E  Q    Q       E  E  Q    Q       Q    Q    Q        H.
E||------------------|------------------|-----------------|-------|
B||--1--3--4----6----|--3--4--3---------|-----------------|-------|
G||------------------|-------------3----|--5--------------|-------|
D||--3---------------|--5---------------|--3----5----0----|---1---|
A||------------------|------------------|-----------------|---3---|
E||------------------|------------------|-----------------|-------|


     E  E  Q    Q       Q    H           E  E  Q    Q       Q    H
E||--4--3-------4----|--3-------------|------------------|----------------|
B||--------6---------|-------4--------|--6--4-------6----|--4-------------|
G||------------------|----------------|--------6---------|-------5--------|
D||--3---------------|----------------|------------------|----------------|
A||------------------|--6-------------|--4---------------|----------------|
E||------------------|----------------|------------------|--4-------------|


     E  E  Q    Q       Q    Q    Q       H        E  E     Q    Q    Q
E||------------------|-----------------|-----------------|------------3----|
B||--2--1-------2----|--4--------------|-----------------|-------5---------|
G||--------3---------|-------6----3----|--5--------5--6--|--5--------------|
D||------------------|--5--------------|-----------------|-----------------|
A||--1---------------|-----------------|-----------------|--3--------------|
E||------------------|-----------------|--4--------------|-----------------|


     E  E  Q    Q       Q    Q    Q       Q    Q    Q       H        Q
E||--4--3-------4----|--6--------------|-----------------|----------------|
B||--------6---------|-------8---------|--6----4---------|--4-------------|
G||------------------|------------8----|------------6----|-----------5----|
D||--3---------------|-----------------|-----------------|----------------|
A||------------------|--6--------------|--4--------------|----------------|
E||------------------|-----------------|-----------------|--4-------------|

  
     Q    E  E  Q       Q    Q    Q        H.
E||------------------|-----------------|-------||
B||--3----3--5--6----|--6----5----3----|---5---||
G||------------------|--4--------------|-------||
D||------------------|-----------------|-------||
A||------------------|-----------------|---3---||
E||--3---------------|-----------------|-------||

Legend:
-------

H - half
Q - quarter
E - 8th
. - dotted

Login or Register to remove this ad.

1 comment on Lacie

Very enjoyable to play.

5

I've been playing it repetitively nonstop for about an hour.