Ads

X.U. (Owari no Seraph) Guitar Tab

Submitted: May 17, 2015 by Otakusician (Last updated: May 17, 2015)

5
Average: 5 (2 votes)
Download | Listen
Game: Owari no Seraph
Composer(s): Hiroyuki Sawano, Takafumi Wada, Asami Tachibana, Megumi Shiraishi
Style: Arrangement, Fingerstyle

This song is also called Opening Theme

Click here for a video example.

AutoScroll: Slow | Medium | Fast
X.U.
(Anime) Owari No Seraph
Hiroyuki Sawano
PDGuitar/Otakusician
May 1st, 2015

     S S S S S S S S S S S S S S S S    S S S S S S S S S S S S Q     
E||----------------------------------|-------------------------------|
B||----1-0-----0-------1-0-----0-----|----1-0-----0-------1-0--------|
G||--------0-------0-------0-------0-|--------0-------0-------0------|
D||----------2---2---2-------2---2---|----------2---2---2-------2----|
A||----------------------------------|-------------------------------|
E||--0-------------------------------|--0----------------------------|


  E  E  E  E  E  E  E  E     E  E  E  E  E  E  E  E     W                 
--0-----------------------|--------------------------|-------------------|
-----------0--------3--0--|--------------0--------1--|--L----------------|
--------------------------|-----------------2--------|-------------------|
--------------------------|-----------2--------------|-------------------|
-----2-----------2--------|-----2-----------2--------|-------------------|
--0-----0-----0-----0-----|--0-----0-----0-----0--L--|--L----------------|


  Q    E  E  E  E  E  E     E  E  E  E  E  E  E  E     E  E  E  E  E  E  E  E   
-------------------------|--------------------------|--------------------------|
----------0--0--------0--|-----1-----0-----------0--|--------------------------|
-------2-----------------|-----------------2--------|--------------------------|
----------------2--------|--------------------------|--------------------------|
-------------------------|--------------------------|--------2-----------2-----|
--0----0-----0-----0-----|--0-----0-----0-----0-----|--0--0-----0--0--0-----0--|


  E  E  E  E  S S E  E  E     E  E  E  E  E  E  E  E   
---------------------------|--0-----------------------|
----------------0----------|--------0--0--0--------1--|
---------------------0-----|-----------------2--------|
------------------------2--|-----2--------------------|
--------2------------2-----|-----2-----------2--------|
--0--0-----0--0---0-----0--|--0-----0-----0-----0-----|


  E  E  E  E  E  E  E  E     E  E  E  E  E  E  E  E   
--------------------------|--0-----------------------|
--------0--0--0--0-----0--|-----------0--------3--0--|
--------------------2-----|--------------------------|
--------------------------|--------------------------|
-----2-----------2--------|-----2-----------2--------|
--0-----0-----0-----0-----|--0-----0-----0-----0-----|


  E  E  E  E  E  E  E  E     E  E  E  E  E  E  E  E     E  E  Q    E  E  E  E   
--------------------------|--------0-----------------|-------------------------|
-----------------0-----3--|-----3--------0--3--------|--0--0--3-------0-----3--|
--------------------------|-----------2-----------2--|-------------------2-----|
-----------2--------------|-----2-----------0--------|-------------------------|
-----2-----------2--------|--3-----3-----0-----0-----|-----2----------2--------|
--0-----0-----0-----0-----|--------------------------|--0-----0----0-----0-----|


  E  E  E  E  E  E  E  E     E  E  Q    E  E  E  E     E  E  Q    E  E  E  E   
--------0-----------------|-----2-------------------|--------0----------------|
-----3--------0--3--------|--0-----3----------0--3--|-----3-------0--3--------|
-----------2-----------2--|-------------------------|-------------------2--2--|
-----2-----------0--------|----------------2--------|-----2----------0--------|
--3-----3-----0-----0-----|-----2----------2--------|--3-----3----0-----0-----|
--------------------------|--0-----0----0-----0-----|-------------------------|


  E  E  Q    E  E  E  E     E  E  Q    E  E  E  E     E  E  Q    E  E  E  E   
-------------------------|--------0-------3--2--2--|--0----------------------|
--0-------------0--3--3--|-----3-------3-----------|-----0--0----0--------1--|
--------0----------------|-------------------------|----------------2--------|
-----2-------------------|-----2----------0--------|-------------------------|
-----2----------2--------|--3-----3----0-----0-----|-----2----------2--------|
--0-----0----0-----0-----|-------------------------|--0-----0----0-----0-----|


  Q    Q    Q.     E     E  E  Q    Q    E  E     E  E  E  E   E    Q.       
----------------------|-----2--L---------------|-----2----------------------|
--0----0----3------0--|--0----------0----0--3--|--0--------3-------(3)------|
--0-------------------|--2---------------------|----------------------------|
--2---------2---------|--0-----0---------------|--------2-----(2)-----------|
--3-------------------|------------------------|----------------------------|
----------------------|------------------------|--0-------------------------|


  E  E  Q    Q    E  E     Q    Q    Q    Q       Q    Q    Q    Q     
------------------------|----------------------|----------------------|
---------------------0--|-------3----3----3----|--3---------1---------|
-------------0----2-----|-------0----0----0----|--0---------0----3----|
-----2--L---------------|----------------------|-------2--------------|
------------------------|----------------------|--3---------3---------|
--0---------------------|--3---------3---------|----------------------|


  Q.     H        E     Q.     Q    E  E  E     E  E  E  E  E  E  E  E   
--1------------------|-----------------------|--------------------------|
--3------3--------L--|--------------0-----1--|-----------1-----------0--|
---------------------|---------2----2-----2--|--------2--2-----------2--|
---------------------|---------2-------------|-----2-----------2--------|
---------------------|---------0-------0-----|--0-----0-----0-----0-----|
--3------3--------L--|-----------------------|--------------------------|


  E  E  E  E  E  E  E  E     E  E  E  E  E  E  Q       E  E  Q    E  E  E  E   
--------------------------|-------------------------|-------------------------|
--------0-----0-----------|--0-----0-----1----------|----------------0-----1--|
-----------0-----------0--|--0-----0--2--0----------|-------------2--2-----2--|
--------------------------|-----0-----------0-------|-------------------------|
-----3-----------3--------|-------------------------|-----2----------2--------|
--1-----1-----1-----1-----|--3-----3-----3-----3----|--0-----0----0-----0-----|


  E  E  E  E  E  E  E  E     E  E  E  E  E  E  E  E     E  E  E  E  E  E  Q     
--------------------------|--------------------------|-------------------------|
-----------1-----------0--|-----0--------------------|-----0-----0--0--1-------|
--------2--2-----------2--|--------0--0--0-----------|--0--------0--0--0-------|
-----2-----------2--------|-----------------------2--|-----2-----------2-------|
--0-----0-----0-----0-----|-----3-----------3--------|--3-----3-----3-----3----|
--------------------------|--1-----1-----1-----1-----|-------------------------|


  E  E  Q    E  E  E  E     E  E  E  E  E  E  E  E     E  E  E  E  E  E  E  E   
----------------------0--|--3-----0--3-----3--0--3--|-----3--0--0-----0--------|
-------------------------|--1-----1--1-----1--1--1--|-----0--0--0-----0--3--1--|
-------------------------|--------------------------|--------------------0--0--|
-------------------2-----|-----2-----------2--------|--------------------------|
-----2----------2--------|--3-----3-----3-----3-----|-----2-----------2--------|
--0-----0----0-----------|--------------------------|--3-----3-----3-----3-----|


  E  E  E  E  E  E  E  E     E  E  E  E  E  E  E  E   
--------0-----------------|--------0-----------------|
--3-----1-----------1--3--|--3-----1-----------1-----|
--2--------2-----2--------|--2--------2-----2-----2--|
-----2-----------2--------|-----2-----------2--------|
--0-----0-----0-----0-----|--0-----0-----0-----0-----|
--------------------------|--------------------------|


  E  E  E  E  E  E  E  E     E  E  E  E  E  E  E  E   
--3-----0--3-----3--0--3--|-----3--0--0-----0--------|
--1-----1--1-----1--1--1--|-----0--0--0-----0--3--1--|
--------------------------|--------------------0--0--|
-----2-----------2--------|--------------------------|
--3-----3-----3-----3-----|-----2-----------2--------|
--------------------------|--3-----3-----3-----3-----|


  E  E  E  E  E  E  E  E     E  E  E  E  E  E  E  E     W                  
--------0--0--------------|-----------0--3--5--5--3--|-------------------||
--3-----1--1--------1--3--|--3-----------------------|-------------------||
--2--------------2--------|--2-----2-----------------|-------------------||
-----2-----------2--------|-----2-----------2--------|-------------------||
--0-----0-----0-----0-----|--0-----0-----0-----0-----|--0----------------||
--------------------------|--------------------------|-------------------||
Login or Register to remove this ad.