Overture (Underhero) Guitar Tab

Submitted: Sep 21, 2018 by Elitemuspic (Last updated: Sep 22, 2018)

0
Download | Listen
Game: Underhero
Style: Fingerstyle

AutoScroll: Slow | Medium | Fast
Game - Underhero
Song - Overture
Composer - Stijn Van Wakeren
Tabbed by - Elitemuspic


e||-6--8--9-8h9p8----------------------------------------
B||---------------9----9---------------------------9-----
G||-----------------10---8--10--8-----------8----8---10--
D||-------------------------------11--8--11---11---------
A||------------------------------------------------------
E||------------------------------------------------------

e||-6--8--9-8h9p8-----------------------------------
B||---------------9----9----------------------------
G||-----------------10---8--10--8-------------8-----
D||-------------------------------11--8----11---11--
A||-------------------------------------11----------
E||-------------------------------------------------

e||----------------------------------------------------------
B||----------------------------------------------------------
G||----------------------------------------------------------
D||-8--10--11-10h11p10----------------------------------6----
A||--------------------11--8--11--6--8--6---------6---6---8--
E||---------------------------------------9--6--9---9--------

e||---------------------------------------------------------
B||---------------------------------------------------------
G||---------------------------------------------------------
D||-8--10--11-10h11p10--------------------------------------
A||--------------------11--8--11--6--8--6------------6---6--
E||---------------------------------------9--6--4--9---9----

e||----------------------------------------------------------------------------------------------------------
B||-----------------------------------------------------------------------------------------11--13--11\9--11-
G||-----------------------------------------8----10---10------10----10--8----8-------------------------------
D||-8------8--6--8----11--10--8--6--8----11---10----8----10---------------11---10--11-10h11------------------
A||----------------------------------------------------------------------------------------------------------
E||----------------------------------------------------------------------------------------------------------


h - Hammer On
p - Pull Off
/ - Slide Up
\ - Slide Down
Login or Register to remove this ad.

2 comments on Overture

responce

i like the lyrics and the sound of the words are nice and powerful you did a job well done

Subject

Thanks?