Ads

Lost in the Storm/Main Theme (Ori and the Blind Forest) Guitar Tab

Submitted: Mar 30, 2020 by guitarsvd (Last updated: Apr 02, 2020)

5
Average: 5 (1 vote)
Download | No audio :(
Game: Ori and the Blind Forest
Composer(s): Gareth Coker
Style: Arrangement, Artificial harmonics, Fingerstyle, Natural harmonics, Tremolo

Click here for a video example.

AutoScroll: Slow | Medium | Fast
Title: Ori, Lost in the Storm/Main Theme
SubTitle: Ori and the Blind Forest
Artist: Cecil Chau (GuitarSVD)
Music: Gareth Coker
Tempo = 90
Nylon Guitar

Legend
L - tied note
x - dead note
h - hammer on/pull off
b - bend
s - slide
~ - vibrato
g - ghost note
> - accentuated note
t - trill
M - palm mute
. - staccato
P - popping (bass)
S - slapping (bass)
+ - tapping
W - wide vibrato
< - fade in
w - whammy bar
= - tremolo picking
v - brush up
^ - brush down
V - pick stroke up
n - pick stroke down

                                      ^                                
E |----------------|-------|-------|--12-------12-5--------5----------|
B |----------------|-------|-------|--10----15----------8-------------|
G |-----6----------|-------|-------|--9-------------------------------|
D |-----------0----|-------|-------|----------------------------------|
A |--0-------------|--7L---|--7----|--------------------------0--8----|
E |----------------|-------|-------|----------------------------------|

                                                                     
--0--------0----------------------|-----0----------|----------------|
--------3-------------------------|----------------|--3-------------|
--------------2-----2-------------|--2--------2----|-----3--2-------|
-----------------------------0----|--------2--3----|--------0--3----|
--------------------------3-------|--------0-------|-----------1----|
----------------------------------|----------------|----------------|

                                
-------------------------------|
-------------------------------|
--2-----------0--2-------------|
--2-----------------12---------|
--------------------------0----|
-------------------------------|

                                                        
--12----------12----------12----------12---------------|
-----12----12----12----12----12----12----12----12------|
--------14----------14----------14----------14---------|
-------------------------------------------------------|
-------------------------------------------------------|
--------------------------------------------------0----|

                                                                   
--8-----10-8--7-----3-------------|--0--------0-------------------|
----------------------------------|--------3----------------------|
----------------------------------|--------------2----------------|
----------------------------------|-------------------------------|
--------------------------0-------|-------------------------------|
-----------------------------3----|--------------------------1----|

         ^                                             
-----0----------------------------|-----------0-------|
--3-----1-----0-------------------|-------------------|
-----------0--------0-------------|--2-----2----------|
-----------------------------0----|--4----------------|
--------------------------3-------|--------------0----|
----------------------------------|-------------------|

                                                                   
--8-----10-8--7-----3-------------|--0--------0-------------------|
--------------------0-----10-0----|--------3-----------3----------|
--------------------------9--0----|--------------2--------2--2----|
----------------------------------|--2----------------------------|
--------------------------0-------|-------------------------------|
-----------------------------3----|--------------------------1----|

                                                                
-----0-------------------------|-------------------------------|
--3-----------------1h-0-------|-------------------------------|
--------2--------0--------0----|--2--------------------2-------|
-------------------------------|--5-----4----------------------|
--------------------------3----|--------------------------5----|
-------------------------------|-------------------------------|

                                                                     
-----0----------------------------|-------------|--8-----7--5-------|
--------------------0h-1----------|-------------|-------------------|
--2-----2--------0----------------|--2--2-------|-------------------|
----------------------------------|-------------|-------------------|
----------------------------------|--------0----|--------------0----|
--------------------------1--3----|-------------|-------------------|

                                                                    
--3----------|--8-----7--5-------|--7--12------|--8-----7--5-------|
-----5-------|-------------------|-----12------|--10---------------|
-----0-------|-------------------|-------------|--------7--5-------|
-------------|-------------------|-------------|-------------------|
-------------|--------------0----|-------------|--------------0----|
--------0----|-------------------|--------0----|-------------------|

                                             
--3----------|-------------------|----------|
-----5-------|--3--------0-------|----------|
-----0-------|-------------------|--2-------|
-------------|-------------------|----------|
-------------|--------------2----|----------|
--------0----|-------------------|-----1----|

                                                                            
--8-----7--5----------------------------|--3--0----------------------------|
-----------------------0L-0-------------|-----------------0-----------0----|
--------------------5--------4L-4--5----|--------------0--------0h-2-------|
----------------------------------------|----------------------------------|
-----------------0----------------------|--------------------2-------------|
----------------------------------------|-----------0----------------------|

                         =     =  =       =  =       =     =  =       =  =  
--8-----7--5----------------------------|--7--12---------------------------|
-----------------------0L-0-------------|-----12----------0----------------|
--------------------5--------4L-4--5----|--------------0-------------------|
----------------------------------------|----------------------------------|
-----------------0----------------------|----------------------------------|
----------------------------------------|-----------0----------------------|

     =     =  =       =  =       =  =       =
--8-----7--5----------------------------|--3--0----------------------------|
-----------------------0L-0-------------|-----------------0-----------0----|
--------------------5--------4L-4--5----|--------------0--------0h-2-------|
----------------------------------------|----------------------------------|
-----------------0----------------------|--------------------2-------------|
----------------------------------------|-----------0----------------------|


----------------------------------------|
--3-----------------------2h-3----------|
-----------------------4--------4-------|
--------------------4--------------4----|
-----------------2----------------------|
----------------------------------------|


-----------------------0----------------------------|
--------------------3--------------------1----------|
--2-----------------------------------2-------------|
-----------------------------------3----------------|
--------------------------------3-------------------|
-----------------------------1----------------------|


--1-----------0h-1--0-------------------------------|
-----------------------3-----------3L-3-------------|
--------------------------------2-------------------|
-----------------------------0----------------------|
----------------------------------------------------|
----------------------------------------------------|


--0--5-----------0L-0-------------|-------------------------------|
--------------1-------------------|--10----------------------7----|
-----------2----------------------|-----------------8-----8-------|
----------------------------------|-----------7h-9-----9----------|
--------3-------------------------|--------9----------------------|
----------------------------------|-----7-------------------------|


--0-----7--12---|--8-----7--5----------------------------|
--0--10---------|--------------------0-----5-------------|
----------------|-----------------5-----5-----5----------|
----------------|--------------------------------7-------|
----------------|--------------0--------------------7----|
----------------|----------------------------------------|


--3--0----------------------------|--8-----7--5----------------------------|
--------------------0-------------|--------------------0-----5-------------|
-----------------0-----0----------|-----------------5-----5-----5----------|
--------------2-----------2-------|--------------------------------7-------|
-----------2-----------------2----|--------------0--------------------7----|
--------0-------------------------|----------------------------------------|


--7--12---------------------------|--8-----7--5----------------------------|
--------------0--------0-----0----|--------------------0-----5-------------|
-----------0-----9--------0-------|-----------------5-----5-----5----------|
----------------------------------|--------------------------------7-------|
----------------------------------|--------------0--------------------7----|
--------0-----------0-------------|----------------------------------------|


--3--0----------------------------|-----2----------------------------|
--------------------0-------------|--3--------------------3----------|
-----------------0-----0----------|--------------4-----------4-------|
--------------2-----------2-------|-----------4-----4-----------4----|
-----------2-----------------2----|--------2-------------------------|
--------0-------------------------|----------------------------------|


--------------------------------1-------------------|
-----------------------------1--1-------------------|
--2-----------------------2--2--2-------------------|
-----------------------3--3--3----------------------|
-----------------------3--3-------------------------|
--------------1--------1----------------------------|


--8-----7--5----------------------------------------|
-----------------------0-----------5--------5-------|
--------------------5-----5-----------5--------5----|
-----------------7-----------7----------------------|
--------------0-------------------------------------|
----------------------------------------------------|


--3--0----------------------------------------|
-----------------------------0-----0----------|
-----------------------0--------0-----0-------|
--------------2-----2--------------------2----|
-----------2-----2----------------------------|
--------0-----------------0-------------------|


--8-----7--5----------------------------------------|
-----------------------0-----------5--------5-------|
--------------------5-----5-----------5--------5----|
-----------------7-----------7----------------------|
--------------0-------------------------------------|
----------------------------------------------------|


--7--12---------------------------------------|
--------------0-----0--------0-----0----------|
-----------0-----0-----0--------0-----0-------|
----------------------------------------------|
-----------------------------------------7----|
--------0-----------------0-------------------|


--8-----7--5----------------------------------------|
-----------------------0-----------5--------5-------|
--------------------5-----5-----------5--------5----|
-----------------7-----------7----------------------|
--------------0-------------------------------------|
----------------------------------------------------|


--3--0----------------------------------------|
-----------------------------0-----0----------|
-----------------------0--------0-----0-------|
--------------2-----2--------------------2----|
-----------2-----2----------------------------|
--------0-----------------0-------------------|


-----------------------2-------------------|
--3-----------------3-----3-----3----------|
-----------4-----4-----------4-----4-------|
--------4-----4-----------------------4----|
-----2-------------------------------------|
-------------------------------------------|


-----------------------0----------------------------------------|
--------------------3-----------------------1-------------------|
--2--------------------------------------2----------------------|
--------------------------------3-----3-----3-------------------|
-----------------------------3-----3----------------------------|
--------------------------1-------------------------------------|


--1-----------0h-1--0-------------------------------|
-----------------------3-----------3--3-------------|
--------------------------------2-------------------|
-----------------------------0----------------------|
----------------------------------------------------|
----------------------------------------------------|


--0--5-----------0----------------|-------------------------------|
--------------1-------------------|--10----------------------7----|
-----------2----------------------|-----------------8-----8-------|
----------------------------------|-----------7--9-----9----------|
--------3-------------------------|--------9----------------------|
----------------------------------|-----7-------------------------|


--0-----7--12---|--5-----------5-------------------|
--0--10----12---|--------5-----------3-------------|
----------------|-----2-----2-----2-----2----------|
----------------|----------------------------------|
----------------|--------------------------0--0----|
----------------|----------------------------------|


--5----------------------------|--5-----------5-------------------|
--------5----------------------|--------5-----------3-------------|
-----2--2----------------------|-----2-----2-----2-----2----------|
-------------------------------|----------------------------------|
--------------------------0----|--------------------------0--0----|
-------------------------------|----------------------------------|


--5----------------------------|--8-----7--5-------|--3--0-------|--5----------||
--------5----------------------|-------------------|-------------|-------------||
-----2--2----------------------|-------------------|-------------|--------2----||
-------------------------------|--------------7----|--------2----|-------------||
--------------------------0----|-------------------|-------------|-------------||
-------------------------------|-------------------|-------------|-------------||

Login or Register to remove this ad.