Ads

Surechigai (Ore no Imouto ga Konna ni Kawaii Wake ga Nai) Guitar Tab

Submitted: Jul 08, 2017 by Coolbreeze (Last updated: Jul 08, 2017)

5
Average: 5 (1 vote)
Download | Listen
Game: Ore no Imouto ga Konna ni Kawaii Wake ga Nai
Style: 2 or more instruments, Transcription

AutoScroll: Slow | Medium | Fast
				                     Surechigai
				~Ore no Imouto ga Konna ni Kawaii Wake ga nai O.S.T~

Music by Satoru Kousaki
Performed by Hiroshi Iimuro
Tabbed by Coolbreeze
Tempo = 92

Standard Tuning


Guitar 1

     H.              H.              H.              H.            
E||---------------|---------------|---------------|---------------|
B||---------------|---------------|---------------|---------------|
G||---------------|---------------|---------------|---------------|
D||---------------|---------------|---------------|---------------|
A||---------------|---------------|---------------|---------------|
E||---------------|---------------|---------------|---------------|


  H.              H.              H.              H.            
---------------|---------------|---------------|---------------|
---------------|---------------|---------------|---------------|
---------------|---------------|---------------|---------------|
---------------|---------------|---------------|---------------|
---------------|---------------|---------------|---------------|
---------------|---------------|---------------|---------------|


  Q    Q    Q         Q    H           Q     Q    Q       Q    H         
-------7----7----|--6g7-------------|-------10----8----|--7-------------|
--5--------------|------------------|------------------|----------------|
-----------------|------------------|--9---------------|----------------|
-----------------|------------------|------------------|----------------|
-----------------|------------------|------------------|----------------|
-----------------|------------------|------------------|----------------|


  Q    Q    Q       Q    Q    Q       Q    Q    Q       H        Q     
-------8----8----|--8----7---------|--7----5---------|----------------|
--5--------------|------------5----|------------5----|--4-------------|
-----------------|-----------------|-----------------|----------------|
-----------------|-----------------|-----------------|----------------|
-----------------|-----------------|-----------------|----------------|
-----------------|-----------------|-----------------|----------------|


  Q    Q    Q         Q    H           Q     Q    Q       Q    H         
-------7----7----|--6g7-------------|-------10----8----|--7-------------|
--5--------------|------------------|------------------|----------------|
-----------------|------------------|--9---------------|----------------|
-----------------|------------------|------------------|----------------|
-----------------|------------------|------------------|----------------|
-----------------|------------------|------------------|----------------|


  Q    Q    Q       Q    Q    Q       Q    Q    Q       H        Q     
-------8----8----|--8----7---------|--7----5---------|----------------|
-----------------|------------5----|------------5----|--4-------------|
--9--------------|-----------------|-----------------|----------------|
-----------------|-----------------|-----------------|----------------|
-----------------|-----------------|-----------------|----------------|
-----------------|-----------------|-----------------|----------------|


  E  E  H           H.                E  E  H           H.            
--3--2--0--------|---------------|--2g3--2--0--------|---------------|
-----------------|---------------|-------------------|---------------|
-----------------|---------------|-------------------|---------------|
-----------------|---------------|-------------------|---------------|
-----------------|---------------|-------------------|---------------|
-----------------|---------------|-------------------|---------------|


  E  E  H           Q    Q.     E     E   E  H           H.            
--3--2--0--------|--2--------------|------------------|---------------|
-----------------|-------3---------|--3s--5--L--------|---------------|
-----------------|--------------4--|------------------|---------------|
-----------------|-----------------|------------------|---------------|
-----------------|-----------------|------------------|---------------|
-----------------|-----------------|------------------|---------------|


  E  E  H           H.              E  E  H           H        E  E   
--3--2--0--------|---------------|--3--2--0--------|-----------------|
-----------------|---------------|-----------------|--------------0--|
-----------------|---------------|-----------------|-----------------|
-----------------|---------------|-----------------|-----------------|
-----------------|---------------|-----------------|-----------------|
-----------------|---------------|-----------------|-----------------|


  E  E  H           Q    Q    Q       E   E  H           H.            
--3--2--0--------|--2--------------|------------------|---------------|
-----------------|-------3---------|--3s--5--L--------|---------------|
-----------------|------------4----|------------------|---------------|
-----------------|-----------------|------------------|---------------|
-----------------|-----------------|------------------|---------------|
-----------------|-----------------|------------------|---------------|


    H.              H.              H.              H.              
|----------------|---------------|---------------|----------------||
|----------------|---------------|---------------|----------------||
|*---------------|---------------|---------------|---------------*||
|*---------------|---------------|---------------|---------------*||
|----------------|---------------|---------------|----------------||
|----------------|---------------|---------------|----------------||


  H.             
---------------||
---------------||
---------------||
---------------||
---------------||
---------------||




Guitar 2

     E  E  H           E  E  H           E  E  Q    Q       H.            
E||--------3--------|--------2--------|--------0---------|--3------------|
B||-----0-----------|-----0-----------|-------------0----|--5------------|
G||-----------------|-----------------|-----0------------|---------------|
D||--2--------------|--0--------------|------------------|---------------|
A||-----------------|-----------------|--3---------------|---------------|
E||-----------------|-----------------|------------------|---------------|


                                                         ^             
  E  E  H           E  E  H           E  E  Q    Q       H.            
--------3--------|--------2--------|--------0---------|--3------------|
-----0-----------|-----0-----------|-------------0----|--5------------|
-----------------|-----------------|-----0------------|---------------|
--2--------------|--0--------------|------------------|---------------|
-----------------|-----------------|--3---------------|---------------|
-----------------|-----------------|------------------|---------------|


  E  E  H           E  E  H           E  E  H           E  E  H         
--------3--------|--------2--------|--------0--------|-----------------|
-----0-----------|-----0-----------|-----------------|--------3--------|
-----------------|-----------------|-----0-----------|-----------------|
--2--------------|--0--------------|-----------------|-----4-----------|
-----------------|-----------------|--3--------------|--2--------------|
-----------------|-----------------|-----------------|-----------------|


  E  E  H           E  E  H           E  E  H           E  E  H         
-----------------|-----------------|-----------------|-----------------|
--------1--------|--------0--------|--------1--------|--------4--------|
-----------------|-----------------|-----------------|-----------------|
-----2-----------|-----2-----------|-----2-----------|-----4-----------|
--0--------------|-----------------|-----------------|--2--------------|
-----------------|--3--------------|--2--------------|-----------------|


  E  E  H           E  E  H           E  E  H           E  E  H         
--------3--------|--------2--------|--------0--------|-----------------|
-----0-----------|-----0-----------|-----------------|--------3--------|
-----------------|-----------------|-----------------|-----------------|
--2--------------|--0--------------|-----2-----------|-----4-----------|
-----------------|-----------------|--3--------------|--2--------------|
-----------------|-----------------|-----------------|-----------------|


  E  E  H           E  E  H           E  E  H           H.            
-----------------|-----------------|-----------------|---------------|
--------1--------|--------0--------|--------1--------|--4------------|
-----------------|-----------------|-----------------|---------------|
-----2-----------|-----2-----------|-----2-----------|---------------|
--0--------------|-----------------|-----------------|--2------------|
-----------------|--3--------------|--2--------------|---------------|


  E  E  H           E  E  H           E  E  H           E  E  H         
--------0--------|--------0--------|--------3--------|--------3--------|
-----------------|-----------------|-----0-----------|-----0-----------|
-----0-----------|-----0-----------|-----------------|-----------------|
-----------------|-----------------|--2--------------|--2--------------|
--3--------------|--3--------------|-----------------|-----------------|
-----------------|-----------------|-----------------|-----------------|


  E  E  H           E  E  H           E  E  Q    Q       H        Q     
-----------------|-----------------|------------------|--0-------------|
--------1--------|--------3--------|-------------0----|----------------|
-----------------|-----------------|--------0---------|----------------|
-----2-----------|-----4-----------|------------------|----------------|
--0--------------|--2--------------|-----2------------|----------------|
-----------------|-----------------|--0---------------|----------------|


  E  E  H           E  E  H           E  E  H           E  E  H         
-----------------|--------0--------|-----------------|-----------------|
--------1--------|-----------------|-----------------|-----------------|
-----0-----------|-----0-----------|--------0--------|--------0--------|
-----------------|-----------------|-----------------|-----------------|
--3--------------|--3--------------|-----2-----------|-----2-----------|
-----------------|-----------------|--0--------------|--0--------------|


  E  E  H           E  E  H           E  E  Q    Q       H.            
-----------------|-----------------|------------------|--3------------|
--------1--------|-----------------|-------------0----|---------------|
-----------------|--------4--------|------------------|---------------|
-----2-----------|-----4-----------|--------2---------|---------------|
--0--------------|--2--------------|-----2------------|---------------|
-----------------|-----------------|--0---------------|---------------|


    E  E  H           E  E  H           E  E  Q    Q       H.              
|---------3--------|--------2--------|--------0---------|--3-------------||
|------0-----------|-----0-----------|-------------0----|--5-------------||
|*-----------------|-----------------|-----0------------|---------------*||
|*--2--------------|--0--------------|------------------|---------------*||
|------------------|-----------------|--3---------------|----------------||
|------------------|-----------------|------------------|----------------||


  ^              
  H.             
---------------||
--3------------||
--0------------||
--4------------||
---------------||
--0------------||
Login or Register to remove this ad.

1 comment on Surechigai

O hey, I did this one too!

5

This one nearly matches my own version, I was saving it for making a solo version (eventually). Nice work.