Ads

Shiawase no Arika (Ore Monogatari!!) Guitar Tab

Submitted: Jun 17, 2015 by Elixirfemme

3
Average: 3 (4 votes)
Download | Listen
Game: Ore Monogatari!!
Composer(s): S.E.N.S. Project
Style: Transcription

AutoScroll: Slow | Medium | Fast
Shiawase no Arika - Local Connect

INTRO:

E|--------6-----------6-----
B|--6-----------6-----------
G|-----8-----8-----8-----8--
D|--------------------------
A|--------------------------
E|-------------------------- (x4)


E|-----------------------------------
B|--4-3-4-3-4-3-4--6-8--4-3-3s4------
G|-----------------------------------
D|-----------------------------------
A|-----------------------------------
E|-----------------------------------

Estrofa:

e|-----------------------------------
B|---4-3-4---------------------------
G|---------3-3----5--3--5--3---------
D|---------------------------3--3s5--
A|-----------------------------------
E|-----------------------------------

e|-----------------------------------
B|-----------------------------------
G|-----------------------------------
D|-----------------------------------
A|--6-6-8-10-8----6-6-8-10-6---------
E|-----------------------------------

e|-------------------------------------------------------------
B|-------------------------------4-3--3-3--3-4-6-4s6--6s8-6s8--
G|--5-8-10-8-5-8---5-8-10-8-7s8--------------------------------
D|-------------------------------------------------------------
A|-------------------------------------------------------------
E|-------------------------------------------------------------

Chorus:
e|---------------------------------6------------------
B|----4-4--6-8--4-4-6-8----4-6-4-6----6-4-4-----------
G|----------------------------------------------------
D|----------------------------------------------------
A|----------------------------------------------------
E|----------------------------------------------------

e|--------------------------------6-------------------
B|----4-4-6-8---4-4-6-8--4-6-4-6-----6-4-4------------
G|----------------------------------------------------
D|----------------------------------------------------
A|----------------------------------------------------
E|----------------------------------------------------

Ending
e|--------------------------------------------------------------------------
B|--------------7-6-6---6--------8-6-6--------------------------6-----------
G|---5-8-5-8--5-------8---8-5----------8-8s10s12s10s8---5-5-7-8----5-7-7s8--
D|-----------------------------8--------------------------------------------
A|--------------------------------------------------------------------------
E|--------------------------------------------------------------------------
Login or Register to remove this ad.