Ads

Setting Sun (Orange) Guitar Tab

Submitted: Apr 12, 2019 by scarecrowlol

5
Average: 5 (5 votes)
Download | Listen
Game: Orange
Composer(s): Hiroaki Tsutsumi
Style: Arrangement, Fingerstyle

AutoScroll: Slow | Medium | Fast
Title: Setting Sun
SubTitle: Orange
Artist: Hiroaki Tsutsumi
Tabber: Mitch Jackson
Tempo = 66
T/S = 4/4

Left hand fingering is included in the GP7 & GPX files as a guide


   ♪♫•*¨*•.¸¸ CAPO 2 ¸¸.•*¨*•♫♪


                                     
     E  E  E  E  E  E  E  E       W                            E  E  E  E  E  E  E  E       W
E |--3-------------------------|----------------------------|----------------------------|--0-------------------------|
B |--------1--0-----0----------|----------------------------|--3-----------3-------------|----------------------------|
G |--2--0--------2-----0-------|----------------------------|--5-----2--0--2--0----------|----------------------------|
D |-----------------------4----|--0-------------------------|--2--2--------4-----0-------|----------------------------|
A |--0-------------------------|----------------------------|--0-----------0--------3----|--2-------------------------|
E |----------------------------|----------------------------|----------------------------|----------------------------|
                                                                         
                       |--3--|
     Q.       E  Q     E  E  E       H           H                Q.       E  Q.       S S      H           H
  |-------------------------------|----------------------------|-----------------------------|--5-----------0-------------|
  |-------------------------------|-(0)------------------------|-----------1--1--------1s3---|--0-------------------------|
  |-----------2--2-----L--0-------|-(0)------------------------|-----------------------------|--2-------------------------|
  |--0-----------------------3----|--2-----------0-------------|--2--------------------------|--------------2-------------|
  |-------------------------------|--2-------------------------|--3--------------------------|----------------------------|
  |--1----------------------------|--3-------------------------|--1--------------------------|--3-------------------------|
                                                                           
                                                                                 |--3--|
     W                            Q.       E  Q.       E       Q.       E  E  E  E  E  E       Q.       H           E
  |--L-------------------------|----------------------------|-------------------------------|----------------------------|
  |----------------------------|----------------------------|-------------------------------|----------------------------|
  |----------------------------|-(0)------------------------|-------------------------------|----------------------------|
  |--L-------------------------|--0-----------0-------------|-(3)-------------2--L----------|-----------------------2----|
  |----------------------------|-----------3-----------3----|--5--------3s-5--------3--2----|--3-------------------------|
  |--L-------------------------|--1-------------------------|--3----------------------------|--5--------0----------------|
                                                                             

     E  Q     E  H                Q.       E  Q.       E       Q.       E  E  E  E  T S.     Q.       Q     E  E  E
  |----------------------------|----------------------------|-----------------------------|----------------------------|
  |----------------------------|----------------------------|-----------------------------|--0-------------------------|
  |--0-------------------------|-(0)------------------------|--------------------0--2s5---|-----------0-----5s-0-------|
  |--0-----------2-------------|--0-----------0-------------|-(3)-------------2-----------|----------------------------|
  |-----3-----2----------------|--3--------3-----------3----|--5--------3s-5--------------|--0-------------------------|
  |----------------------------|--1-------------------------|--3--------------------------|-----------------------0----|
                             
                                                                                 |--3--|
     H           E  E  E  E       E  E  E  E  Q     E  E       E  E  E  E  E  E  E  E  E       Q.       Q     Q     E
  |--------------0-------------|----------------------------|-------------------------------|----------------------------|
  |-----------------3--1--0----|----------------------------|-------------------------------|----------------------------|
  |----------------------------|--------------------0-------|-(0)---------------------------|----------------------------|
  |----------------------------|--0-----0-----0-------------|--0--0--2--------2--L----------|-----------------------2----|
  |----------------------------|-----3-----3-----------3----|-----------3s-5--------3--2----|--3--------2-----3----------|
  |--L-------------------------|--1-------------------------|--3----------------------------|--5-------------------------|
                             
                        |--3--|
     E  Q     E  T S.E  E  E  E       H           Q     E  E       H           H                H           Q     Q
  |--------------------------------|----------------------------|----------------------------|----------------------------|
  |--------------------------------|----------------------------|----------------------------|----------------------------|
  |--0-----------------------------|----------------------------|----------------------------|----------------------------|
  |--0--------2--------------------|--0-----------2-----2-------|--0-----------2-------------|--------------2-----2-------|
  |-----2--------2s3-2--L--0-------|--3--------------------2----|----------------------------|--3-------------------------|
  |--0------------------------3----|--5-------------------------|--0-----------3-------------|--1-------------------------|

                                                                                
     W                            Q.       E  E.  E.  E       E  E  E  S S E  E  E  S S      E  T S E  S S E  T S.E  E
  |----------------------------|---------------------------|-----0------------0-----------|-------------------------------|
  |----------------------------|----------------------0----|--3-----3--1-3----0--3--1-3---|--0--3s5-1--0-1----1s3-0-------|
  |-(0)------------------------|--L-----------1---2--------|--2---------------------------|----------------2---------2----|
  |--2-------------------------|--L--------2---------------|-----2---------2--------------|---------2---------------------|
  |--2-------------------------|--L------------------------|--0---------------------------|-------------------------------|
  |--3-------------------------|--L------------------------|---------------4--------------|--3-------------2--------------|
                                                     
                         |--3--|
     E  E  T S.S S E  E  E  E  E       E  E  E  T S.E  E  E  E       E  E  E  S S E  S S E  S S      E  S S E  S S E  E  S S E
  |-------------------0-------------|---------------------0-------|-----0------------0------------|-----0----------2--------------|
  |--0---------1--------------------|-----------------------------|-------------------------------|----------------------1-Ls3----|
  |-----1--2s4---0-------------0----|--0------------1-------------|--------2-------------1--------|---------0---------2-----------|
  |--------0----------2-------------|-----0-----2s3----0--2--0----|--2-----2--0-2--------2--0-2---|---------2--0-2----------------|
  |----------------3-----2s-3-------|--3-----0------3--2--0--2----|--2--3---------3--2-3----------|--3--2-3--------3--------------|
  |--1-------------0----------------|--6------------0-------------|--5------------4---------------|--3-------------2--------------|
                                                                                
                                                                ^
     Q.       Q.       Q          Q     Q     Q     S S E       Q.       E  E.  S E  E       W
  |-(0)------------------------|-----------------------------|--7--------------------3----|--0-------------------------|
  |--1-----------------1-------|--3-----------4-----1-Ls3----|--5-----------0h--1---------|----------------------------|
  |--0--------2----------------|-----------------------------|--4--------2--0-------------|--2-------------------------|
  |--------------------2-------|--0-----------------4--------|--------------------0-------|----------------------------|
  |--3--------3----------------|--------2-----3--------------|--0-------------------------|--3-------------------------|
  |--1-------------------------|--4-----------4--------------|--------------3-------------|--2-------------------------|
                                                     

     Q     Q     Q     Q          H           H                Q     Q     Q     Q          W
  |--0-------------------------|----------------------------|--3-------------------------|--1-------------------------|
  |--1-------------------------|--6-------------------------|--1-------------------------|--3-------------------------|
  |----------------------------|--4-----------0-------------|--0-------------------------|--1-------------------------|
  |--2-----2-----0-------------|--3-------------------------|--------2-----0-------------|--3-------------------------|
  |--3-----------------3-------|--5-------------------------|--------------------3-------|--2-------------------------|
  |--1-------------------------|----------------------------|--1-------------------------|----------------------------|
          
                                  ^
     W                            W                            W
  |--L-------------------------|--3-------------------------|--L-------------------------||
  |--L-------------------------|--5-------------------------|--L-------------------------||
  |--L-------------------------|--0-------------------------|--L-------------------------||
  |--L-------------------------|--2-------------------------|--L-------------------------||
  |--L-------------------------|--0-------------------------|--L-------------------------||
  |----------------------------|----------------------------|----------------------------||

Login or Register to remove this ad.

4 comments on Setting Sun

This is nice, you have some

5

This is nice, you have some more of it? :D

Thanks! :D You mean more from

Thanks! :D You mean more from Orange? or more similar sounding stuff...

Sugoii

5

Always good to see and play your tabs man,thanks for this :D

No problem glad you like it!

No problem glad you like it! :D