Ads

Memories (One Piece) Guitar Tab

Submitted: Nov 22, 2011 by JordanVS

5
Average: 5 (4 votes)
Download | Listen
Game: One Piece
Composer(s): Shiro Hamaguchi
Style: Arrangement, Fingerstyle

AutoScroll: Slow | Medium | Fast
Memories
One Piece 
First Ending                             
Maki Otsuki


Guitar


     Q    Q    Q    Q       Q    E  Q    E  Q       Q    Q    Q    Q     
E||------------2---------|----------3----2-------|------------2---------|
B||-------3---------3----|-------3----------3----|-------3---------3----|
G||--2-------------------|--2--------------------|--2-------------------|
D||--0-------------------|-----------------------|--0-------------------|
A||----------------------|-----------------------|----------------------|
E||----------------------|-----------------------|----------------------|


  Q    E  Q    E  Q         Q    E  E  Q    E  E     Q    E  E  E  E  E  E   
----------3----2-------||---2----------2----------|----------3-----2--------|
-------3----------3----||---3----3----------3-----|-------3-----------3-----|
--2--------------------||*--2---------------------|--2----------------------|
-----------------------||*------------------------|-------------------------|
-----------------------||---0-------0--0-------0--|--2-------2--2--------2--|
-----------------------||-------------------------|-------------------------|


  Q    E  E  Q    E  E     Q    E  E  E  E  E  E       Q    E  E  Q    E  E   
--2----------2----------|----------3-----2---------||--2----------2----------|
--3----3----------3-----|-------3-----------3------||--3----3----------3-----|
--2---------------------|--2----------------------*||--2---------------------|
------------------------|-------------------------*||--0-------0--0-------0--|
------------------------|--------------------------||------------------------|
--3-------3--3-------3--|--3-------3--3--------3---||------------------------|


  Q    E  E  E  E  E  E     Q    E  E  Q    E  E     Q    E  E  E  E  E  E   
----------3-----2--------|--2----------2----------|----------3-----2--------|
-------3-----------3-----|--3----3----------3-----|-------3-----------3-----|
--2----------------------|--2---------------------|--2----------------------|
--0-------0--0--------0--|--0-------0--0-------0--|--0-------0--0--------0--|
-------------------------|------------------------|-------------------------|
-------------------------|------------------------|-------------------------|


    ^                       ^                        ^          ^            
    Q    E  E  Q.     E     E  E  E  E  Q.     E     Q    E  E  E  E  E  E   
|---2----3--2---------L--|--2--2--3--2---------L--|--2----3-----2--0-----0--|
|---3--------------------|--2---------------------|--3----------2-----3-----|
|*--2--------------------|--2---------------------|--4----------2-----------|
|*--0-------0--0------0--|------------------------|--4----------------------|
|------------------------|--4--------4--4------4--|--2-------2--0--------0--|
|------------------------|------------------------|-------------------------|


  ^                        ^                        ^                     
  E  E  E  E  Q.     E     E  E  E  E  Q.     E     Q    E  E  Q.     E   
--3--3--L---------------|--0--0-----0------------|--2--------------------|
--3--3------------------|--0-----3------------3--|--3----3--3---------L--|
--0---------------------|--0---------------------|--4--------------------|
------------------------|--2---------------------|--4--------------------|
------------------------|--2---------------------|--2-------2--2------2--|
--3--------3--3------3--|--0--------0--0------0--|-----------------------|


  ^                                                              ^            
  Q    E  E  E  Q    E     E  E  E  Q    E  Q         Q    E  E  E  E  E  E   
--3-------------2----2--|--0--0-------------------||--3----2-----0-----------|
--3----3--0--3-------0--|--2--------0-------------||--3----------2--3--2--3--|
--0---------------------|--2--2----------2--2----*||--0----------2-----------|
---------------------2--|--2---------------------*||-------------2-----------|
---------------------0--|--0--0--0--0----0--0-----||-------------0--------0--|
--3-------3--3----------|-------------------------||--3-------3--------------|


                      ^                                               
  W                   Q    E  E  Q    E  E     Q    E  E  E  Q    E   
--2----------------|--3----0----------------|--0---------------------|
--3----------------|--3---------------3-----|-------3--3--0--3----0--|
--2----------------|--0---------------------|------------------------|
--0----------------|--0---------------------|------------------------|
-------------------|--2---------------------|------------------------|
-------------------|--3-------3--3-------3--|--3-------3--3-------3--|


  ^                                                 ^                       
  Q    E  E  E  E  E  E     Q    E  E  Q.     E     Q    Q    E  E  S S E   
--2----0--------L--------|--0----2---------------|--0----0----0--2------2--|
--3----------------3-----|-------------3---------|--2---------------2-2-2--|
--2----------------------|-----------------------|--2---------------2-2-3--|
--0-------0--0--------0--|--0-------0--0------0--|--2---------------2-2-4--|
-------------------------|-----------------------|--0----0----0--0--0-0-4--|
-------------------------|-----------------------|----------------------2--|


                                                     ^         ^          
  E  E  E  E  Q    Q       E  E  E  Q    E  E  E     Q    Q    Q    Q     
--L--3--2--2--0----2----|--0----------------------|--2---------0----5----|
--L--2--------2---------|--0--0--0--3----------L--|--3---------2---------|
--L--3--------3---------|-------------------------|--4---------2---------|
--L-----------4---------|-------------------------|--4---------2---------|
--L---------------------|-----------2----2--2-----|--2----2----0----0----|
--L-----2--2-------2----|--2-----2----------------|----------------------|


  Q    E  E  Q    E  E     Q    E  E  E  Q    E     Q    E  E  Q    E  E   
--3----0----------------|--0---------------------|--2----0----------------|
--3---------------3-----|-------3-----0--3----0--|--3---------------3-----|
--0---------------------|------------------------|--2---------------------|
--0---------------------|------------------------|--0-------0--0-------0--|
--2---------------------|------------------------|------------------------|
--3-------3--3-------3--|--3-------3--3-------3--|------------------------|


  Q    E  E  Q.     E     Q    E  E  E  Q    E     E  E  E  E  Q    E  E   
--0----2---------------|--0----0-----0--2----3--|--L--3--2--2--0----------|
--3-------3---------L--|--0---------------------|--0----------------3-----|
--2-------0---------L--|--0---------------------|-------------------------|
--0-------0--0------0--|--2-------2--2-------2--|--2--------2--2-------2--|
-----------------------|------------------------|-------------------------|
-----------------------|------------------------|-------------------------|


  Q    E  E  Q.     E     E  E  E  E  E  E  E  E     Q.     E  Q    E  E   
--2----0--0---------L--|--3--3--3--3--0--0--0--0--|--5--------------2--3--|
--2--------------------|--3--3--3--3--2--2--2--2--|--3-----------------3--|
--2----2---------------|--0-----------2-----------|--2-----------------2--|
--2-------2------------|--0-----------2-----------|--0------0--0-------0--|
--0-------0--0------0--|--2-----------0-----------|-----------------------|
-----------------------|--3-----------------------|-----------------------|


                                                    ^           ^            
  Q    E  E  Q    E  E     Q    E  E  Q    E  E     E  E  E  E  E  E  E  E   
--5----2--3--5----5--5--|--3----7--3-------2--3--|--3-----------2-----------|
------------------------|--3---------------------|--3-----------2-----------|
------------------------|--0----0----------------|--0--0--------2--2--------|
--0-------0--0-------0--|----------0-------------|--0-----0-----4-----4-----|
------------------------|------------------------|--2--------2--4--------4--|
------------------------|--3-------3--3-------3--|--3--------3--2--------2--|


  Q.     E  Q    E  E     Q    E  E  Q    E  E     Q    E  E  Q    E  E   
--3--------------0--2--|--3----0--2--3----3--3--|-------5--2-------0--2--|
-----------------------|--0---------------------|--3------------------3--|
-----------------------|------------------------|--2----2----------------|
--2------2--2-------2--|--2-------2--2-------2--|--0-------0--0-------0--|
-----------------------|------------------------|------------------------|
--0--------------------|------------------------|------------------------|


  E  E  E  E  E  E  E  E     Q    E  E  Q     E  E      Q.     E   Q.     E   
--2-----------4-----------|------------------10-----|---9------9-------------|
--3--3--3--3--5-----------|-------------7-----------|-------------10---------|
--2--2--2--2--6--6--6--6--|--7----9-----------------|------------------------|
--0-----0-----6--6--6--6--|-------------------------|--11--------------------|
--------------4-----4-----|--9----------------------|---9------9---9------9--|
--------------------------|--7-------7--7--------7--|------------------------|


  Q    E  E  Q    E  E     Q    E  E  Q    E  E     Q    E  E  Q    Q     
--7----5-----3----7--5--|--2----------2----------|--3----3--0--3----3----|
------------------------|--3----------3----------|-----------------------|
--0-------0--0-------0--|--2----------2----2--2--|----------0------------|
------------------------|--0----0--0-------0--0--|--2----2---------------|
------------------------|------------------------|--2--------------------|
------------------------|------------------------|--0--------------------|


  Q    E  E  H           Q    Q    Q    Q       Q    E  Q    E  Q     
--2----------0--------|------------2---------|----------3----2-------|
----------------------|-------3---------3----|-------3----------3----|
----------2-----------|--2-------------------|--2--------------------|
--2----2--------------|--0-------------------|-----------------------|
--0-------------------|----------------------|-----------------------|
----------------------|----------------------|-----------------------|


                                                 ^                  
  Q    Q    Q    Q       Q    E  Q    E  Q       W                  
------------2---------|----------3----2-------|--2----------------||
-------3---------3----|-------3----------3----|--3----------------||
--2-------------------|--2--------------------|--2----------------||
--0-------------------|-----------------------|--0----------------||
----------------------|-----------------------|-------------------||
----------------------|-----------------------|-------------------||
Login or Register to remove this ad.

3 comments on Memories

I only listened to the midi

I only listened to the midi and even it sounds beautiful :)

answer pls

I need your help please,can you make tabs for this one,please
http://www.youtube.com/watch?v=a-twu12kXDw

thanks

5

thanks you never cease to amaze.

P.S
can i request a tab for One Summer's Day by Joe Hisaishi. i tried arranging but i can't.