Ads

Haha Naru Umi (One Piece) Guitar Tab

Submitted: May 18, 2015 by JordanVS

5
Average: 5 (2 votes)
Download | Listen
Game: One Piece
Composer(s): Shiro Hamaguchi
Style: Arrangement, Artificial harmonics, Fingerstyle, Tapped harmonics

This song is also called Mother Sea

AutoScroll: Slow | Medium | Fast
Haha Naru Umi                                                       
Mother Sea
One Piece
Shiro Hamaguchi
JordanVS

*Drop D Tuning 
*Tempo : 70

     E  E  E  E  E  Q.          W                   E  E  E  E  E  Q.        W                 
E||-----------1------------|---------------------|-----------1------------|-------------------|
B||--3-----3-----3--1------|--<>3----------------|--3-----3-----3--1------|-------------------|
G||-----0------------------|---------------------|-----0------------------|-------------------|
D||------------------------|---------------------|------------------------|--0----------------|
A||------------------------|---------------------|------------------------|-------------------|
D||------------------------|---------------------|------------------------|-------------------|


  E  E  E  E  E  E  Q       W                   E  E  E  E  E  E  Q       Q.        E  E  E  E  E  E  Q     
-----------1-------------|-------------------|-----------1-------------|---------|-----------1-------------|
--3-----3-----3--1-------|-------------------|--3-----3-----3--1-------|---------|--3-----3-----3--1-------|
-----0-------------------|-------------------|-----0-------------------|---------|-----0-------------------|
--0----------------------|-------------------|--3-----1-----0----------|--0------|--0----------------------|
--------3-----2-----0----|--2----------------|--------------------3----|---------|--------3-----2-----0----|
-------------------------|-------------------|-------------------------|---------|-------------------------|


  H        Q    Q       E  E  E  E  E  E  E  E       E    Q       E     Q    E  E     E  E  H        E  E   
---------------------|-----------1--------------|--<>3-----------------------------|-----------------------|
---------------------|--3-----3-----3--1--------|-------<>3------------------------|-----------------3--3--|
---------------------|-----0--------------------|--------------<>12----------0-----|-----------------------|
---------------------|--------------0-----------|--------------------<>12-------0--|--L--------------------|
--2-------------0----|--1--------------3--2--3--|----L-----------------------------|-----------------------|
-----------5---------|--------------------------|----------------------------------|-----5--0--------------|


  E  E  E  E  E  Q    E     E  E  E  E  Q    Q        E  E  E  E  H            E.  E.  E.  E.  E  E   
--3-----------L-------3--|--5-----------3----5----|---8-----7--------------|--10-------5-------------|
-----------------3-------|------------------------|------------8--L--------|-------8-------3---3--3--|
--------0--2--L----------|------------------------|------0--5--7-----------|-------------------------|
-----0-------------------|--------3--5--L---------|------------------------|-------------------------|
-------------------------|-----3------------------|------------------------|-------------------------|
--5----------------------|--3---------------------|--10--------------------|-------------------------|


  E  E  E  E  E  Q    E     E  E  E  E  Q    Q       E  E  E  E  H           E.  E.  E.    E.  Q     
--3-----------L-------3--|--5-----5-----8----7----|--5--3--5--3--L--------|----------3--------------|
-----------------3-------|------------------------|-----------3--L--------|--3-----------<>3--------|
--------0--2--L----------|------------------------|-----0--5--------------|------0------------------|
-----0-------------------|--------3--5--L---------|-----------------------|-------------------------|
-------------------------|-----3------------------|--3--------------------|-------------------------|
--5----------------------|--3---------------------|-----------------------|-------------------------|


                                    ^            ^                  
  Q     Q    Q    Q       H         H            W                  
-----------------------|-----------13--------|--10----------------||
-----------------------|-----------13--------|--12----------------||
-----------------------|-----------10--------|--12----------------||
--0--------------------|---------------------|--------------------||
------------------0----|---------------------|--------------------||
-------10----9---------|--9------------------|--------------------||




Duration Legend
---------------
W - whole
H - half
Q - quarter
E - 8th
S - 16th
T - 32nd
X - 64th
. - note dotted
|-n-|  - n-tuplets


Tablature Legend
----------------
L - tied note
NH - natural harmonic
AH - artificial harmonic
TH - tapped harmonic
SH - semi harmonic
PH - pitch harmonic
^ - brush up
v - brush down

Not fulfilling any request,just an old arrangement I forgot I did :)
Login or Register to remove this ad.