Ads

Gold and Oden (One Piece) Guitar Tab

Submitted: Jan 27, 2012 by JordanVS

5
Average: 5 (6 votes)
Download | Listen
Game: One Piece
Composer(s): Shiro Hamaguchi
Style: Arrangement, Fingerstyle

AutoScroll: Slow | Medium | Fast
Gold And Oden                                   
One Piece
Shiro Hamaguchi & Kohei Tanaka




     H.           E  S S    Q    Q    Q    Q       H.           E  S S  
E||----------------------|----------------------|--0-------------------|
B||------------------1-3-|--5---------3---------|--1-------------------|
G||----------------------|--4----4----2---------|--0---------------0-2-|
D||----------------------|--4---------2----2----|----------------------|
A||----------------------|--4---------2---------|----------------------|
E||----------------------|----------------------|--0-------------------|


  Q    Q    Q    Q       H.           E  S S    Q    Q    Q    Q     
-----------------1----|----------------------|----------------------|
------------1---------|--3---------------3-4-|--5---------3---------|
--3----0----0---------|--4-------------------|--4----4----2---------|
--1---------3---------|--5-------------------|--4---------2----2----|
--3---------0---------|--0-------------------|--4---------2---------|
----------------------|----------------------|----------------------|


  W                   W                   H        H         
--0----------------|-------------------|--------------------|
--1----------------|--3----------------|--------------------|
--0----------------|--2----------------|--------------------|
-------------------|--2----------------|--------------------|
--0----------------|--1----------------|--4--------0--------|
-------------------|-------------------|--------------------|


  H        H           E  E  E  E  E  E  E  E     H        Q     Q     
-----------0--------|--5--------------3--------|--3--------1----10----|
--------------------|-----------1--3-----1--3--|----------------------|
--------------------|--------0-----------------|----------------------|
--------------------|-----3--------------------|----------------------|
--L-----------------|--1-----------------------|----------------------|
--------------------|--------------------------|----------------------|


  E  E  E  E  E  E  Q       H.           Q       E  E  E  E  E  E  E  E   
--7--------3-----0-------|---------------0----|--5--------------3--------|
--------0--1--3-----0----|--------------------|-----------1--3-----1--3--|
-------------------------|--------------------|--------0-----------------|
-----2--------------4----|--L-----------------|-----3--------------------|
--0----------------------|--------------------|--1-----------------------|
-------------------------|--------------------|--------------------------|


  W                   T  T  T E  T    Q    Q    Q    Q       W                 
--3----------------|--3p-2p-0------|------------0---------|-------------------|
-------------------|----------3--L-|-----------------3----|-------------------|
-------------------|---------------|-------2--------------|-------------------|
-------------------|---------------|--0-------------------|--4----------------|
-------------------|---------------|----------------------|-------------------|
-------------------|---------------|----------------------|-------------------|


  H.           E  S S    Q    Q    Q    Q       H.           E  S S  
----------------------|----------------------|--0-------------------|
------------------1-3-|--5---------3---------|--1-------------------|
----------------------|--4----4----2---------|--0---------------0-2-|
--L------------L------|--4---------2----2----|----------------------|
----------------------|--4---------2---------|----------------------|
----------------------|----------------------|--0-------------------|


  Q    Q    Q    Q       H.           E  S S    Q    Q    Q    Q     
-----------------1----|------------------1-3-|--4---------6---------|
------------1---------|--3-------------------|-------6--------------|
--3----0----0---------|--4-------------------|--5---------3----3----|
--1---------3---------|--5-------------------|----------------------|
--3---------0---------|--0-------------------|--4---------3---------|
----------------------|----------------------|----------------------|


  H        H           W                   W                 
--------------------|-------------------|--2----------------|
--3--------2--------|--0----------------|-------------------|
--2-----------------|--1----------------|--2----------------|
--------------------|--2----------------|--0----------------|
--2-----------------|--2----------------|--0----------------|
--------------------|-------------------|-------------------|


  ^                            
  W                            
-------------------|---------||
--0----------------|---------||
--1----------------|---------||
--2----------------|---------||
--2----------------|---------||
--0----------------|---------||




Duration Legend
---------------
W - whole
H - half
Q - quarter
E - 8th
. - note dotted



Tablature Legend
----------------
L - tied note
v - brush down
Login or Register to remove this ad.

4 comments on Gold and Oden

very nice and god job

very nice and god job

=)

=)

Pretty nice and easy song to

5

Pretty nice and easy song to play

I love this, dude!

I love this, dude!