Ads

Franky's Theme (One Piece) Guitar Tab

Submitted: Jul 18, 2011 by Ranulf

5
Average: 5 (2 votes)
Download | Listen
Game: One Piece
Composer(s): Shiro Hamaguchi
Style: Transcription

AutoScroll: Slow | Medium | Fast
Franky's Theme
One Piece
Anime
Tabbed by John Adams
Composed by Shiro Hamaguchi
7/18/2011


e||--------------------------------------------------------------------------------------------|
B||------------------------------------------------------------------------------------------8-|
G||--------------------------------------5---------------------------------------5-------5-----|
D||--5-5-5-5-5-5--6--5---5-5-5-5-5-5--8------5-5-5-5-5-5--6--5---5-5-5-5-5-5--8------5---------|
A||--------------------------------------------------------------------------------------------|
E||--------------------------------------------------------------------------------------------|

-----------------------------------------------------------------------------------------------------------|
-----------------------------------------------------------------------------------------------------------|
--------------------------------7---5---------------------------------------------7---5--------------------|
--5--5---5---5--8p5-5---8-5-7-5-------7-5---5-7-8---5--5---5---5--8p5-5---8-5-7-5-------7-5---5-7-8--8p5-5-|
-------8---8------------------------------8--------------8---8------------------------------8--------------|
-----------------------------------------------------------------------------------------------------------|

--6--5------------------------------------------------------6--5----------------|
--------9--8--------------------5--6--8---------------------------9--8--6--5----|
------------------------------------------------------------------------------8-|
--------------------------------------------------------------------------------|
--------------------------------------------------------------------------------|
--------------------------------------------------------------------------------|

-----------------------------------------------------------------------------------------------------------|
-----------------------------------------------------------------------------------------------------------|
--------------------------------7---5---------------------------------------------7---5--------------------|
--5--5---5---5--8p5-5---8-5-7-5-------7-5---5-7-8---5--5---5---5--8p5-5---8-5-7-5-------7-5---5-7-8--8p5-5-|
-------8---8------------------------------8--------------8---8------------------------------8--------------|
-----------------------------------------------------------------------------------------------------------|

------------------------------------------------------------------------------------------------------------||
------------------------------------------------------------------------------------------8/20~-------------||
--------------------------------------5---------------------------------------5-------5---------------------||
--5-5-5-5-5-5--6--5---5-5-5-5-5-5--8------5-5-5-5-5-5--6--5---5-5-5-5-5-5--8------5--------------20--19--17-||
------------------------------------------------------------------------------------------------------------||
------------------------------------------------------------------------------------------------------------||

SUPERRR!!!!!!
Login or Register to remove this ad.