Ads

Fight Together (One Piece) Guitar Tab

Submitted: Mar 26, 2012 by JordanVS

5
Average: 5 (7 votes)
Download | Listen
Game: One Piece
Composer(s): Shiro Hamaguchi
Style: Arrangement, Fingerstyle

AutoScroll: Slow | Medium | Fast
Fight Together
Namie Amuro                                   
One Piece
14th Opening

To fulfill demon09's request

*Capo On 2nd Fret



     E  E  E  E  E  E  E  E     E  E  E  E  E  E  E  E   
E||--------------------------|--------------------------|
B||-----1-----0-----1-----0--|-----3-----1-----0-----1--|
G||--------------------------|--------------------------|
D||--------------------------|--------------------------|
A||--------------------------|--------------------------|
E||--1-----1-----1-----1-----|--3-----3-----3-----3-----|


  E  E  E  E  E  E  E  E     E  E  E  E  E  E  E  E   
--------------------------|-----------------------0--|
-----1-----0-----1-----0--|-----3-----1-----3-----1--|
--------------------------|--------------------------|
--------------------------|--------------------------|
--3-----3-----3-----3-----|--------------------------|
--------------------------|--0-----0-----0-----0-----|


  E  E  E  E  E  E  E  E     E  E  E  E  E  E  E  E   
--------------------------|--------------------------|
-----1-----0-----1-----0--|-----3-----1-----0-----1--|
-----0-----0-----0-----0--|-----4-----0-----0-----0--|
--------------------------|--------------------------|
--------------------------|--------------------------|
--1-----1-----1-----1-----|--3-----3-----3-----3-----|


                       ^                                                  
  E  E  E  E  E  E  E  E     W                   E  E  E  E  E  E  E  E   
--------------------------|-------------------|--------------------------|
-----1-----0-----1-----1--|--L----------------|-----1--1-----1-----1-----|
-----0-----0-----0-----0--|--L----------------|-----------2-----------2--|
-----------------------2--|--L----------------|--------------------------|
-----------------------3--|--L----------------|--------------------------|
--3-----3-----3-----3-----|-------------------|--1--------------1--------|


  Q    E  Q    E  E  E     E  E  E  E  Q    E  E     Q    E  Q    E  E  E   
----------0----1-----0--|-------------------------|----------0----1-----0--|
--1----3----------------|-----1--1-----1----1-----|--1----3-------------1--|
------------------------|-----------2----------2--|------------------------|
------------------------|-------------------------|-------2----------2-----|
------------------------|--3-----3----------3-----|------------------------|
--3---------------3-----|-------------------------|--0-------0----0-----0--|


  E  E  E  Q    E  E  E     E  E  E  E  E  E  E  E     Q    Q    Q    Q     
----------------------0--|-----0--------------------|------------3----0----|
-----1-------------1-----|--------3--1--3-----1--1--|--L-------------------|
----------------2--------|-----------------2--------|----------------------|
-------------------------|--------0-----------0-----|----------------------|
--------3----------3-----|--------------------------|-------3---------3----|
--1--------1----------1--|--3--------3-----3-----3--|--L-------------------|


  E.  S E  S S E  S S E  E     E  E  E  E  Q    E  E   
------0-------------0-------|-----3--0----------------|
--3-----3--L-1-3--3---3--1--|-----------3--3----3--1--|
----------------------------|-------------------------|
----------------------------|-------------------------|
--3------------3------------|-------------------------|
----------------------------|--1-----------1----------|


  E  E  E  Q    E  E  E     E  E  E  E  Q    E  E     Q    E  Q    E  E  E   
----------------0--------|-----3--3--0--3----3--0--|--3----3--3----0--0--1--|
--3--3--1--3----------1--|--L----------------------|--0-------0-------------|
-------------------------|-------------------------|------------------------|
--------0----------0-----|--------------0----------|--2------------2--------|
-------------------------|-------------------------|------------------------|
--3----------------3-----|--------3----------3-----|--0-------0-------0-----|


  E  E  Q.     E  E  E     E  E  E  E  E  E  E  E     Q    E  E  E  E  E  E   
--L--0---------------1--|--L--1--0-----------------|----------0-----------0--|
---------------1--1-----|-----------3--1--3--1--1--|-------------------------|
------------------------|--------------------------|-------------------------|
------------------------|-----0--------------------|-------3-----3-----3-----|
--------3---------3-----|--------------------------|-------------------------|
--1------------1--------|--3--------3--------3-----|--1-------------1--------|


  Q    E  S S Q    Q       E  E  E  E  E  E  E  E     E  E  E  Q    E  Q     
--L----5--5-5-5---------|-----5--5--3--5--0--------|----------------0-------|
------------------------|--------------------3--1--|--3--3--1--3------------|
-------2--2-2-2---------|--------------------------|------------------------|
------------------------|--------------------------|------------------------|
------------------------|-----------------0--------|--------0---------------|
------------------------|--0-----0-----------0-----|-------------------0----|


  E  E  E  E  E  E  E  E     E  E  E  E  E  E  Q       E  E  E  E  E  E  E  E   
--L--------------------0--|--L--0--0----------------|-----5--5--3--5--0--------|
--------------1--3--1-----|-----------3--1--3-------|--------------------3--1--|
-----2--2--2--------------|--------------------2----|--L-----------------------|
--------------------------|-------------------------|--------------------------|
-----------------0--------|--------0-----------0----|--L--------------0--------|
--L-----0-----------0-----|-------------------------|--------0-----------0-----|


  E  E  E  Q    E  E  E     E  E  E  Q    E  E  E     E  E  E  E  E  E  E  E   
-----------0----0--0--1--|--L--0--0-------------3--|-----3-----0--0--1--3--3--|
--3--3--1----------------|-----------3----1--1--3--|-----3-----------------5--|
-------------------------|-------------------------|--------------------------|
-------------------------|-------------------------|--------------------------|
--------0----------------|-------------------------|--------------------------|
-------------------0-----|--------1----------1-----|--3-----3--------3--3--3--|


  E  E  E  E  E  E  E  E     E  E  E  E  E  E  E  E     E  E  E  Q    E  E  E   
--------------------0--3--|-----1-----0-----------1--|--L--0-------------------|
-----1-----0-----1-----0--|-----3-----1-----3-----3--|--L--1-----3----1-----3--|
--------------------------|--------0-----------0-----|-------------------------|
--------3-----------3-----|--------------------------|-------------------------|
--------------------------|--------------------------|--------3----------3-----|
--1-----------1-----------|--3-----------3-----------|-------------------------|


  E  E  E  E  E  E  E  E     E  E  E  E  E  E  E  E   
-----0-----0--0--1--3--5--|-----3--------------0--3--|
-----3-----1-----0-----6--|-----5-----0-----1-----0--|
-----------------------5--|-----5--------------------|
--------2-----------2-----|--3-----3-----------3-----|
--------------------------|--------------------------|
--0-----------0-----------|--------------1-----------|


  E  E  E  E  E  E  E  E     E  Q    Q    Q    E     E  E  E  E  E  E  E  E   
-----1-----0-----------1--|--L--0--------------3--|-----0--------------------|
-----3-----1-----3-----3--|--L--1----3----1----5--|-----1-----3-----1--3--1--|
--------0-----------0-----|-----------------------|--------------------------|
--------------------------|-----------------------|--------2-----------2-----|
--------------------------|-----3---------3-------|--------------------------|
--3-----------3-----------|-----------------------|--0-----------0-----------|


  E  E  E  E  E  E  E  E     E  E  E  E  E  E  E  E   
-----3-----3-----3-----3--|-----3-----3--3--1--0-----|
-----1-----0-----1-----0--|-----3-----1-----0-----3--|
--------------------------|-----------------------5--|
--------------------------|--------------------------|
--------------------------|--------------------------|
--1-----1-----1-----1-----|--3-----3-----3-----3-----|


  E  E  E  E  E  E  E  E     E  E  E  E  E  E  E  E     H        E  E  E  E   
-----3-----3-----3-----3--|-----3-----3-----3-----3--|-----------0--------3--|
-----------0-----1-----0--|-----3-----1-----3-----5--|--------------3--1--5--|
--5--5--------------------|--------------------------|--------------------5--|
--------------------------|--------------------------|--------------------3--|
--------3-----3-----3-----|--------------------------|--------------0--3-----|
--------------------------|--0-----0-----0-----0-----|--1--------1-----------|


  E  Q    E  E  E  E  E     E  E  E  E  H           H        Q    E  E   
--L--3-------0-----------|-----------------------|-----------0----------|
--L-------1-----1--3--1--|--------------1--------|--3-------------------|
--L----------------------|-----------------------|----------------------|
--L----------------------|-----------------------|----------------------|
-------------------------|--------2--3-----------|--3--------2----3--2--|
-------------------------|--1--3-----------------|--1-------------------|


  Q    E  E  E  E  E  E     Q    E  E  E  E  E  E     Q    E  Q    E  E  E   
--3----------0-----------|-------------------------|------------------------|
-------------------------|--3----------1-----------|------------------------|
-------------------------|-------------------------|--2------------0--0--0--|
-------------0-----------|-------------0-----------|------------------------|
-------2--3-----3--2--3--|-------2--3-----3--2--3--|--3----2--3-------3--2--|
--0----------------------|--0----------------------|--1-------1-------------|


  E  E  E  Q    E  E  E     E  E  E  E  E  E  E  E     E  Q    Q    E  E.  S  
--3-----0-------------5--|-----3--0-----------0--1--|--L--0----------------0-|
-----------3----1--------|-----------3--1--3--------|----------3----1--3-----|
-------------------------|--2--------------------0--|--L---------------------|
-------------------------|--------------------------|----------4-------------|
-----2--3--2-------------|--0-----------------------|------------------------|
--1----------------1-----|--------------4--------3--|--L-------2-------------|


  E  E  E  Q    E  E  E     E  E  E  E  E  E  E  E     E  E  E  Q    E  E  E   
--3-------------3--3--3--|-----1--1--0--0-----------|----------------3--3--3--|
-------------------------|-----------------3--3--1--|--1----------------------|
-------------------------|-----------0--------------|-------------------------|
-----------0----2--------|--------------------------|-------------------0--2--|
-----3-------------2--3--|-----2--3--------3--2--3--|-----3-----2----3--------|
--1-----1----------------|--3-----------------------|--------3----------------|


  E  E  E  E  E  E  E  E     H        Q    E  E     E  E  Q    Q    Q     
--3--1--1--0--0-----------|----------------0-----|-------------0---------|
-----------------3--3--1--|--0----------------0--|--L--1--3--------------|
--------------0-----------|--0----------------0--|--L---------------0----|
-----------2--------------|-----------3----------|-----------------------|
--------2-----------------|--3-------------------|-----------------------|
--0--3--------------------|--1-------------------|-----------------------|


                                       ^                                   
  Q    E  Q    E  E  E     E  E  Q     H            Q.     E  E  E  E  E   
--3----5--7----5--3--5--|--L--0--3----15--------|---L------0--0--1--3--3--|
------------------------|-------------13--------|---L---------------------|
---------------------0--|--L----------12--------|---L---------------------|
--3---------------------|-----------------------|-------------------------|
------------------------|-----------------------|-------------------------|
--1-------0----------3--|--L--------------------|-------------------------|


  E  E  E  E  E  E  E  E     E  E  E  E  E  E  E  E   
--------------------0--3--|-----1-----0-----------1--|
-----1--1-----1--1-----1--|-----3--3-----3--3--------|
--------------------------|--0--------0--------0-----|
--3--------3--------3-----|--------------------------|
--------------------------|--------------------------|
--------------------------|--------------------------|


  E  E  E  E  E  E  E  E     E  Q    Q    E  E  E     E  E  E  E  E  E  E  E   
-----0--------------------|-----0----0----1--3--5--|-----3--------------0--3--|
-----------3-----1-----3--|---------------------6--|-----5-----0-----1-----0--|
-----0--0-----0--0-----0--|------------------0-----|-----5--------------------|
--------------------------|--2-------2----3--------|--3-----3-----------3-----|
--3--------3--------3-----|------------------------|--------------------------|
--------------------------|------------------------|--------------1-----------|


  E  E  E  E  E  E  E  E     E  E  E  Q    E  E  E     E  E  E  E  E  E  E  E   
-----1-----0-----------1--|--L--0----------------3--|-----0--------------------|
-----3-----1-----3-----3--|--L--1-----3----1-----5--|-----1-----3-----1--3--1--|
--------0-----------0-----|-------------------------|--------------------------|
--------------------------|-------------------------|--------2-----------2-----|
--------------------------|--------3----------3-----|--------------------------|
--3-----------3-----------|-------------------------|--0-----------0--------0--|


  E  E  E  E  E  E  E  E     E  E  E  E  E  E  E  E   
--------------------------|--------------------------|
-----1-----0-----1-----0--|-----3-----1-----0-----1--|
-----0-----0-----0-----0--|-----0-----0-----0-----0--|
--------------------------|--------------------------|
--------------------------|--------------------------|
--1-----1-----1-----1-----|--3-----3-----3-----3-----|


  E  E  E  E  E  E  E  E     E  E  E  E  E  E  E  E     H        E  E  E  E   
--------------------------|-----------------------0--|-----------0--------3--|
-----1-----0-----1-----0--|-----3-----1-----3-----1--|--------------3--1--1--|
-----0-----0-----0-----0--|-----0-----0-----0-----0--|--------------------2--|
--------------------------|--------------------------|--------------------3--|
--3-----3-----3-----3-----|--------------------------|--------------0--3-----|
--------------------------|--0-----0-----0-----0-----|--1--------1--------1--|


  E  Q    E  E  E  E  E     W                  
--L--3-------0-----------|-------------------||
--L-------1-----1--3--1--|--L----------------||
--L----------------------|-------------------||
-------------------------|-------------------||
-------------------------|-------------------||
--L----------------------|-------------------||




Duration Legend
---------------
W - whole
H - half
Q - quarter
E - 8th
S - 16th
. - note dotted


Tablature Legend
----------------
L - tied note
^ - brush up
v - brush down
Login or Register to remove this ad.

4 comments on Fight Together

amazing tyvm

amazing tyvm

you're welcome ;D

you're welcome ;D

aaaa

hey this is one standard tuning???

awesome

5

sometimes its hard but its really worth learning. thanks