Because We're Alive (One Piece) Guitar Tab

Submitted: Jul 03, 2012 by JordanVS

5
Average: 5 (2 votes)
Download | Listen
Game: One Piece
Composer(s): Shiro Hamaguchi
Style: Arrangement, Fingerstyle, Natural harmonics

This song is also called If You Live

AutoScroll: Slow | Medium | Fast
Because We're Alive                              
If You Live
One Piece
Shiro Hamaguchi
Piano transcription by Rii Nagaja
JordanVS


                |--3--|  |--3--|     |--3--|                
     E  E  Q    E  E  E  E  E  E     E  E  E  H.            
E||-------------------------------|------------------------|
B||-------------6-----4-----3-----|--1---------------------|
G||--------2-------5-----3-----2--|-----0--3---------------|
D||-----0-------------------------|--------0--3------------|
A||-------------------------------|--3--------0------------|
E||--3----------------------------|------------------------|


  E  E  H        E  E     E  E  H.              E  E  H        E  E   
--3-----------------5--|--3------------------|--3--------------------|
--------3--------L-----|--------3------------|--------3--------L--1--|
--------2--------L-----|--------3------------|-----------------------|
-----0-----------------|---------------------|--------6--------L-----|
-----------------------|-----6---------------|-----3-----------------|
--3--------------------|--3------------------|--3--------------------|


                                      |--3--|   
  Q    H.              E  E  H        E  E  E   
--------------------|--------------------------|
--------------------|--0--------------7-----5--|
--0----2------------|--------------------6-----|
--0----2------------|--------4-----------------|
--------------------|-----2--------------------|
--0----2------------|--0-----0-----------------|


  |--3--|  |--3--|                                    
  E  E  E  E  E  E  H           E  E  H        E  E   
-----------------------------|--3-----------------5--|
-----4--0--2-----0--L--------|--------3--------L-----|
--4-----1--------------------|--------2--------L-----|
-----------2--4--------------|-----0-----------------|
-----------------------------|-----------------------|
--0--------------------------|--3--------------------|


  E  E  H.              E  E  H        E  E     E  E  H        Q     
--3------------------|--3--------------------|----------------------|
--------3------------|--------3--------L--1--|----------------------|
--------0------------|-----------------------|--0--------------2----|
---------------------|--------3--------L-----|--------2-------------|
-----3---------------|-----1-----------------|-----0----------------|
--1------------------|-----------------------|----------------------|


           |--3--|  |--3--|     |--3--|                
  H        E  E  E  E  E  E     E  E  E  H.            
-----------------------------|------------------------|
-----------6-----4-----3-----|--1---------------------|
--3-----------5-----3-----2--|-----0--3---------------|
-----------------------------|-----------3------------|
--3--------------------------|------------------------|
--3--------------------------|------------------------|


                                      NH                
            |---3--|  |---3--|                          
  H         E  E   E  E   E  E        W                 
----------------------8---------|--<>12----------------|
--1--------10-------------------|----------------------|
---------------7---------10--9--|----------------------|
--0---------------10------------|----------------------|
--0-----------------------------|----------------------|
--------------------------------|----------------------|


  E  E  H.              E  E  H.              E  E  H        E  E   
---------------------|---------------------|--3-----------------5--|
---------------------|---------------------|--------3--------L-----|
--------2------------|--------2------------|--------2--------L-----|
-----0---------------|-----0---------------|-----0-----------------|
---------------------|---------------------|-----------------------|
--3------------------|--3------------------|--3--------------------|


  E  Q    H        E    
--3-------------------||
----------3--------L--||
----------2--------L--||
-----0----------------||
----------------------||
--3-------------------||




Duration Legend
---------------
W - whole
H - half
Q - quarter
E - 8th
. - note dotted
|-n-|  - n-tuplets


Tablature Legend
----------------
L - tied note
NH - natural harmonic
Login or Register to remove this ad.

2 comments on Because We're Alive

Nice "piece"!

5

Nice "piece"!

Ha ha!Thanks!^^

Ha ha!Thanks!^^