Ads

Do You Remember? (Title Screen) (OMORI) Guitar Tab

Submitted: Jan 26, 2021 by Moistako (Last updated: Jan 27, 2021)

5
Average: 5 (2 votes)
Download | Listen
Game: OMORI
Style: Fingerstyle

AutoScroll: Slow | Medium | Fast
Arranged by: Moistako
Composed by: Pedro Silva
This songs plays on the title screen after you get the good end in OMORI.
                                                 
    
e|-----|--0----------|---------3---0----|--1----------------3---0--|
B|-----|--5----0--1--|--2------5--------|--------3-----------------|
G|--0--|--0----0-----|---------0---0----|------2---------2----2----|
D|-----|--2----2-----|--2---2----2---2--|--0-3-----0-3-------------|
A|-----|--3----------|--4-4-------------|--------------4-----------|
E|-----|-------------|--5---------------|--------------------------|

e|--1----------------3-----|-----------------1------|----------0-3-8~-|
B|--------3-------------2--|--3-------0-3--------0--|--1-----1--------|
G|------2--------2-2-------|--------0-----0----0----|------0----------|
D|--0-3------2-3-----------|------0-----------------|-----------------|
A|---------------4---------|----2-------------------|--3-3------------|
E|-------------------------|--3---------------------|-----------------|

I'm not sure how to list the whole/half/quarter notes, and I would appreciate it if someone did it for me in the comments so I can learn.
Login or Register to remove this ad.