Ads

Reset ~ ("Thank You" Version) (Okami) Guitar Tab

Submitted: Feb 19, 2015 by massinelli

4.8
Average: 4.8 (5 votes)
Download | Listen
Game: Okami
Composer(s): Masami Ueda, Hiroshi Yamaguchi, Rei Kondo, Akari Groves, JUN
Style: Arrangement, Fingerstyle

AutoScroll: Slow | Medium | Fast
Reset ~ Thank You ~ 
Okami Original Soundtrack
Arranged by Matheus Massinelli
Composer: Hiroshi Yamaguchi
Here is a video demonstration:
https://www.youtube.com/watch?v=DTzO0toNfYY
Subscribe if you like !
                              

Allegro
     H        S  S  Q.        Q    Q    S  S  Q.        H        S  S  Q.      
E||--5--------3h-5p-3------|--0---------0h-3p-0------|--5--------3h-5p-3------|
B||------------------------|-------3-----------------|------------------------|
G||------------------------|-------------------------|------------------------|
D||------------------------|-------------------------|------------------------|
A||------------------------|-------------------------|------------------------|
E||------------------------|-------------------------|------------------------|


                            ^                                        
  Q    Q    S  S  Q.        W                   Q    Q    Q    Q     
--0---------0h-3p-0------|--0----------------|--0-------------------|
-------3-----------------|--3----------------|------------1---------|
-------------------------|--0----------------|-----------------2----|
-------------------------|-------------------|----------------------|
-------------------------|-------------------|-------3--------------|
-------------------------|--1----------------|--1-------------------|


  H        Q    Q       Q    Q    Q    Q       Q    Q    Q    Q     
--0------------------|----------------------|------------3---------|
-----------3----1----|------------0---------|--3----0---------3----|
---------------------|--0--------------0----|----------------------|
---------------------|----------------------|----------------------|
---------------------|-------2--------------|----------------------|
---------------------|--0-------------------|----------------------|


  Q    Q    Q    Q       Q    Q    Q    Q       E   E   H.            
------------0---------|--0--------------3----|--0h--3p--0------------|
----------------------|------------3---------|-----------------------|
----------------------|------------0---------|-----------------------|
------------3----0----|-------0--------------|-----------------------|
-------0--------------|----------------------|--3--------------------|
--1-------------------|--3-------------------|-----------------------|


  Q    Q    Q    Q       Q    Q    Q    Q       Q    Q    H         
----------------------|------------0---------|------------0--------|
------------0---------|--3----0--------------|--1------------------|
-----------------0----|----------------------|-------2-------------|
--2-------------------|----------------------|---------------------|
-------3--------------|-----------------3----|---------------------|
----------------------|------------1---------|---------------------|


  Q    Q    Q    Q       Q    Q    H           Q    Q    Q    Q     
----------------------|---------------------|----------------------|
--3----1--------------|--0---------3--------|--1----0--------------|
------------0---------|-------0-------------|------------2---------|
----------------------|---------------------|----------------------|
-----------------2----|---------------------|-----------------0----|
------------0---------|---------------------|------------1---------|


  Q    Q    H           H        E   E   E  E     E   E   E  Q    Q.      
---------------------|--0----------------------|-------------------------|
------------3--------|-----------1h--3p--1-----|-------------------------|
-------2-------------|----------------------2--|--0h--2p--0--------------|
--0------------------|-------------------------|-------------3----2------|
---------------------|-----------3-------------|-------------------------|
---------------------|-------------------------|-------------------------|


  Q    Q    Q    Q       H        Q    Q       Q    Q    Q    Q     
--0-------------------|--0------------------|----------------------|
------------1---------|-----------3----1----|------------0---------|
-----------------2----|---------------------|--0--------------0----|
----------------------|---------------------|----------------------|
-------3--------------|---------------------|-------2--------------|
--1-------------------|---------------------|--0-------------------|


  Q    Q    Q    Q       Q    Q    Q    Q       Q    Q    Q    Q     
------------3---------|--0-------------------|--0--------------3----|
--3----0---------3----|-----------------3----|------------3---------|
----------------------|----------------------|------------0---------|
----------------------|------------0---------|-------0--------------|
----------------------|-------0--------------|----------------------|
----------------------|--1-------------------|--3-------------------|


  E   E   H.              Q    Q    Q    Q       Q    Q    Q    Q     
--0h--3p--0------------|----------------------|------------0---------|
-----------------------|------------0---------|--3----0--------------|
-----------------------|-----------------0----|----------------------|
-----------------------|--2-------------------|----------------------|
--3--------------------|-------3--------------|-----------------3----|
-----------------------|----------------------|------------1---------|


  Q    Q    H           Q    Q    Q    Q       Q    Q    H         
------------0--------|----------------------|---------------------|
--1------------------|--3----1----3---------|-------5----3--------|
-------2-------------|----------------------|--0------------------|
---------------------|-----------------0----|---------------------|
---------------------|----------------------|---------------------|
---------------------|------------0---------|------------0--------|


  Q    Q    Q    Q       Q    Q    H           H        E   E   E  E   
----------------------|---------------------|--0----------------------|
--1----0--------------|------------3--------|-----------1h--3p--1-----|
------------2---------|-------2-------------|----------------------2--|
----------------------|--0------------------|-------------------------|
-----------------0----|---------------------|-----------3-------------|
------------1---------|---------------------|-------------------------|


  E   E   E  Q    Q.        H        H           H        H         
-------------------------|--------------------|--------------------|
-------------------------|-----------1--------|--0--------3--------|
--0h--2p--0--------------|--2-----------------|--------------------|
-------------3----2------|--------------------|--------------------|
-------------------------|--------------------|--------------------|
-------------------------|--1-----------------|--1-----------------|


  H        H           H        H           Q    Q.     Q.      
-----------1--------|--0-----------------|---------------------|
--3-----------------|-----------3--------|--1----3------1------|
--------------------|--------------------|---------------------|
--------------------|--------------------|---------------------|
--------------------|--0--------1--------|---------------------|
--0-----------------|--------------------|---------------------|


  Q.     Q    Q.        Q    Q    Q    Q       H        Q    Q     
--5------0----3------|--8----7----3----5----|--5--------0----3----|
---------------------|----------------------|---------------------|
---------------------|----------------------|---------------------|
--------------5------|------------3---------|---------------------|
---------------------|----------------------|---------------------|
--3------------------|----------------------|----------------3----|


  Q    H        Q       Q    Q    Q    Q       H        Q    Q     
--5----5--------0----|--7----8----7----5----|--0-------------3----|
---------------------|----------------------|-----------3---------|
---------------------|----------------------|---------------------|
---------------------|----------------------|---------------------|
---------------------|--0-------------------|---------------------|
---------------------|----------------------|--0------------------|


  H        Q    Q       H        Q    Q       H        Q    E   E    
--0-------------3----|--0------------------|------------------------|
-----------3---------|-----------3----1----|--3--------5----5h--8p--|
---------------------|---------------------|------------------------|
---------------------|---------------------|------------------------|
---------------------|---------------------|--3-------------7-------|
--1------------------|--3------------------|------------------------|


  H        Q    Q       Q    Q    H           Q    Q    Q    Q     
-----------8----7----|--3----5----5--------|--0----3----5----5----|
--5------------------|---------------------|----------------------|
---------------------|---------------------|----------------------|
---------------------|--3------------------|----------------------|
---------------------|---------------------|----------------------|
---------------------|---------------------|-------3--------------|


  Q    Q    Q    Q       Q    H        Q       Q    H        Q     
--0----7----8----7----|--5----0-------------|--3----0-------------|
----------------------|----------------3----|----------------3----|
----------------------|---------------------|---------------------|
----------------------|---------------------|---------------------|
-------0--------------|---------------------|---------------------|
----------------------|-------0-------------|-------1-------------|


  Q    Q    Q    Q        Q     H.               H        H         
----------------------|----------------------|---------------------|
--5----8----5----8----|--10----10------------|--10--------8--------|
----------------------|----------------------|---------------------|
----------------------|----------------------|---------------------|
----------------------|----------------------|---------------------|
-------3--------------|---------5------------|---------------------|


  H        H           Q    Q    Q    Q       H        Q    Q     
--------------------|--0-------------------|--0------------------|
--6-----------------|------------1---------|-----------3----1----|
--------------------|-----------------2----|---------------------|
--------------------|----------------------|---------------------|
--------------------|-------3--------------|---------------------|
--------------------|--1-------------------|---------------------|


  Q    Q    Q    Q       Q    Q    Q    Q       Q    Q    Q    Q     
----------------------|------------3---------|------------0---------|
------------0---------|--3----0---------3----|----------------------|
--0--------------0----|----------------------|----------------------|
----------------------|----------------------|------------3----0----|
-------2--------------|----------------------|-------0--------------|
--0-------------------|----------------------|--1-------------------|


  Q    Q    Q    Q       E   E   H.              Q    Q    Q    Q     
--0--------------3----|--0h--3p--0------------|----------------------|
------------3---------|-----------------------|------------0---------|
------------0---------|-----------------------|-----------------0----|
-------0--------------|-----------------------|--2-------------------|
----------------------|--3--------------------|-------3--------------|
--3-------------------|-----------------------|----------------------|


  Q    Q    Q    Q       Q    Q    H           Q    Q    Q    Q     
------------0---------|------------0--------|----------------------|
--3----0--------------|--1------------------|--3----1--------------|
----------------------|-------2-------------|------------0---------|
----------------------|---------------------|----------------------|
-----------------3----|---------------------|-----------------2----|
------------1---------|---------------------|------------0---------|


  Q    Q    H           Q    Q    Q    Q       Q    Q    H         
---------------------|----------------------|---------------------|
--0---------3--------|--1----0--------------|------------3--------|
-------0-------------|------------2---------|-------2-------------|
---------------------|----------------------|--0------------------|
---------------------|-----------------0----|---------------------|
---------------------|------------1---------|---------------------|


  H        E   E   E  E     E   E   E  Q    Q.        Q    Q    Q    Q     
--0----------------------|-------------------------|--0-------------------|
-----------1h--3p--1-----|-------------------------|------------1---------|
----------------------2--|--0h--2p--0--------------|-----------------2----|
-------------------------|-------------3----2------|----------------------|
-----------3-------------|-------------------------|-------3--------------|
-------------------------|-------------------------|--1-------------------|


  H        Q    Q       Q    Q    Q    Q       Q    Q    Q    Q     
--0------------------|----------------------|------------3---------|
-----------3----1----|------------0---------|--3----0---------3----|
---------------------|--0--------------0----|----------------------|
---------------------|----------------------|----------------------|
---------------------|-------2--------------|----------------------|
---------------------|--0-------------------|----------------------|


  Q    Q    Q    Q       Q    Q    Q    Q       E   E   H.            
--0-------------------|--0--------------3----|--0h--3p--0------------|
-----------------3----|------------3---------|-----------------------|
----------------------|------------0---------|-----------------------|
------------0---------|-------0--------------|-----------------------|
-------0--------------|----------------------|--3--------------------|
--1-------------------|--3-------------------|-----------------------|


  Q    Q    Q    Q       Q    Q    Q    Q       Q    Q    H         
----------------------|------------0---------|------------0--------|
------------0---------|--3----0--------------|--1------------------|
-----------------0----|----------------------|-------2-------------|
--2-------------------|----------------------|---------------------|
-------3--------------|-----------------3----|---------------------|
----------------------|------------1---------|---------------------|


  Q    Q    Q    Q       Q    Q    H           Q    Q    Q    Q     
----------------------|---------------------|----------------------|
--3----1----3---------|-------5----3--------|--1----0--------------|
----------------------|--0------------------|------------2---------|
-----------------0----|---------------------|----------------------|
----------------------|---------------------|-----------------0----|
------------0---------|------------0--------|------------1---------|


  Q    Q    H           H        E   E   E  E     E   E   E  Q    Q.      
---------------------|--0----------------------|-------------------------|
------------3--------|-----------1h--3p--1-----|-------------------------|
-------2-------------|----------------------2--|--0h--2p--0--------------|
--0------------------|-------------------------|-------------3----2------|
---------------------|-----------3-------------|-------------------------|
---------------------|-------------------------|-------------------------|


  H        H           H        H           H        H         
--------------------|--------------------|-----------1--------|
-----------1--------|--0--------3--------|--3-----------------|
--2-----------------|--------------------|--------------------|
--------------------|--------------------|--------------------|
--------------------|--------------------|--------------------|
--1-----------------|--1-----------------|--0-----------------|


  H        H           Q    Q.     Q.        Q.     Q    Q.      
--0-----------------|---------------------|--5------0----3------|
-----------3--------|--1----3------1------|---------------------|
--------------------|---------------------|---------------------|
--------------------|---------------------|--------------5------|
--0--------1--------|---------------------|---------------------|
--------------------|---------------------|--3------------------|


  Q    Q    Q    Q       H        Q    Q       Q    H        Q     
--8----7----3----5----|--5--------0----3----|--5----5--------0----|
----------------------|---------------------|---------------------|
----------------------|---------------------|---------------------|
------------3---------|---------------------|---------------------|
----------------------|---------------------|---------------------|
----------------------|----------------3----|---------------------|


  Q    Q    Q    Q       H        Q    Q       H        Q    Q     
--7----8----7----5----|--0-------------3----|--0-------------3----|
----------------------|-----------3---------|-----------3---------|
----------------------|---------------------|---------------------|
----------------------|---------------------|---------------------|
--0-------------------|---------------------|---------------------|
----------------------|--0------------------|--1------------------|


  H        Q    Q       H        Q    E   E      H        Q    Q     
--0------------------|------------------------|-----------8----7----|
-----------3----1----|--3--------5----5h--8p--|--5------------------|
---------------------|------------------------|---------------------|
---------------------|------------------------|---------------------|
---------------------|--3-------------7-------|---------------------|
--3------------------|------------------------|---------------------|


  Q    Q    H           Q    Q    Q    Q       Q    Q    Q    Q     
--3----5----5--------|--0----3----5----5----|--0----7----8----7----|
---------------------|----------------------|----------------------|
---------------------|----------------------|----------------------|
--3------------------|----------------------|----------------------|
---------------------|----------------------|-------0--------------|
---------------------|-------3--------------|----------------------|


  Q    H        Q       Q    H        Q       Q    Q    Q    Q     
--5----0-------------|--3----0-------------|----------------------|
----------------3----|----------------3----|--5----8----5----8----|
---------------------|---------------------|----------------------|
---------------------|---------------------|----------------------|
---------------------|---------------------|----------------------|
-------0-------------|-------1-------------|-------3--------------|


   Q     H.              H        H           H        H         
----------------------|--------------------|--------------------|
--10----10------------|-----------1--------|--0--------3--------|
----------------------|--2-----------------|--------------------|
----------------------|--------------------|--------------------|
----------------------|--------------------|--------------------|
---------5------------|--1-----------------|--1-----------------|


  H        H           H        H           Q    Q.     Q.      
-----------1--------|--0-----------------|---------------------|
--3-----------------|-----------3--------|--1----3------1------|
--------------------|--------------------|---------------------|
--------------------|--------------------|---------------------|
--------------------|--0--------1--------|---------------------|
--0-----------------|--------------------|---------------------|


  Q.     Q    Q.        Q    Q    Q    Q       H        Q    Q     
--5------0----3------|--8----7----3----5----|--5--------0----3----|
---------------------|----------------------|---------------------|
---------------------|----------------------|---------------------|
--------------5------|------------3---------|---------------------|
---------------------|----------------------|---------------------|
--3------------------|----------------------|----------------3----|


  Q    H        Q       Q    Q    Q    Q       H        Q    Q     
--5----5--------0----|--7----8----7----5----|--0-------------3----|
---------------------|----------------------|-----------3---------|
---------------------|----------------------|---------------------|
---------------------|----------------------|---------------------|
---------------------|--0-------------------|---------------------|
---------------------|----------------------|--0------------------|


  H        Q    Q       H        Q    Q       H        Q    E   E    
--0-------------3----|--0------------------|------------------------|
-----------3---------|-----------3----1----|--3--------5----5h--8p--|
---------------------|---------------------|------------------------|
---------------------|---------------------|------------------------|
---------------------|---------------------|--3-------------7-------|
--1------------------|--3------------------|------------------------|


  H        Q    Q       Q    Q    H           Q    Q    Q    Q     
-----------8----7----|--3----5----5--------|--0----3----5----5----|
--5------------------|---------------------|----------------------|
---------------------|---------------------|----------------------|
---------------------|--3------------------|----------------------|
---------------------|---------------------|----------------------|
---------------------|---------------------|-------3--------------|


  Q    Q    Q    Q       Q    H        Q       Q    H        Q     
--0----7----8----7----|--5----0-------------|--3----0-------------|
----------------------|----------------3----|----------------3----|
----------------------|---------------------|---------------------|
----------------------|---------------------|---------------------|
-------0--------------|---------------------|---------------------|
----------------------|-------0-------------|-------1-------------|


  Q    Q    Q    Q        Q     H.              H        H         
----------------------|----------------------|--5--------3--------|
--5----8----5----8----|--10----10------------|--------------------|
----------------------|----------------------|--------------------|
----------------------|----------------------|--------------------|
----------------------|----------------------|--------------------|
-------3--------------|---------5------------|--------------------|


  Q    Q    Q    Q       Q    Q    Q    Q       Q    Q    Q    Q     
--0---------0---------|------------3---------|------------5---------|
-------3--------------|--0----1---------1----|--0-------------------|
-----------------2----|----------------------|----------------------|
----------------------|----------------------|-------2--------------|
------------0---------|----------------------|-----------------3----|
----------------------|----------------------|------------1---------|


  Q    Q    H           Q    Q    H           Q    Q    Q    Q     
-------0----3--------|--0---------0--------|-----------------3----|
---------------------|-------3-------------|-------0----1---------|
--2------------------|---------------------|----------------------|
---------------------|---------------------|--2-------------------|
---------------------|------------0--------|----------------------|
------------3--------|---------------------|----------------------|


  Q    Q    Q     Q      
-------3----7----10----||
--1--------------------||
-----------------------||
-----------------------||
-----------------------||
-----------------------||




Duration Legend
---------------
W - whole
H - half
Q - quarter
E - 8th
S - 16th
T - 32nd
X - 64th
. - note dotted
|-n-|  - n-tuplets


Tablature Legend
----------------
L - tied note
x - dead note
g - grace note
(n) - ghost note
> - accentuded note
NH - natural harmonic
AH - artificial harmonic
TH - tapped harmonic
SH - semi harmonic
PH - pitch harmonic
h - hammer on
p - pull off
b - bend
br - bendRelease
pb - preBend
pbr - preBendRelease
brb - bendReleaseBend
\n/ - tremolo bar dip
\n - tremolo bar dive
-/n - tremolo bar Release up
/n\ - tremolo bar inverted dip
/n - tremolo bar return
-\n - tremolo bar Release down
S - shift slide
s - legato slide
/ -  slide into from below or out of upwards
\ -  slide into from above or out of downwards
~ - vibrato
W - wide vibrato
tr - trill
TP - tremolo picking
T - tapping
S - slap
P - pop
< - fade in
^ - brush up
v - brush down
Login or Register to remove this ad.

1 comment on Reset ~ ("Thank You" Version)

good job

4

good job