Kamiki's Sorrowful Tradition (Okami) Guitar Tab

Submitted: Jan 02, 2019 by guitarsvd (Last updated: Jan 11, 2019)

5
Average: 5 (1 vote)
Download | Listen
Game: Okami
Composer(s): Masami Ueda, Hiroshi Yamaguchi, Rei Kondo, Akari Groves, JUN
Style: 2 or more instruments, Arrangement, Artificial harmonics, Fingerstyle, Natural harmonics

AutoScroll: Slow | Medium | Fast
Kamiki's Sorrowful Tradition                           


                                                                       GuitarSVD
Guitar



     E  E  E  E    E  E  E  E     E  E  E  E    E  E  E  E   
E||----------------------------|----------------------------|
B||--------------<>3-----------|--------------<>3-----------|
G||-----------0-------0--------|----------------------------|
D||--------4-------------4-----|--------2--4-------4--2-----|
A||-----2-------------------2--|-----5-------------------5--|
D||--2-------------------------|--0-------------------------|


  E  E  E  E  Q    Q         E    E    H        S. S T T T  
-----------3--2----3----|------------------------------7---|
--------5-----3---------|--<>0-----------------------8---8-|
-----5------------------|-------<>0-------------L--9-------|
------------------------|------------<>2--------0----------|
--0-----------2---------|----3-----------------------------|
------------------------|----------------------------------|


  E  E  E  E  E  E  E  E     E  E  E  E  E  E  E  E   
--0-----------------------|--------0-----------------|
--------------3--0--------|-----------3--2-----------|
-----------0--------2--0--|--------2--------2--0-----|
--------4-----------------|-----2-----------------4--|
-----2--------------------|--0-----------------------|
--2-----------------------|--------------------------|


                                 NH       NH             
  E  E  E  E    E  E  E  E       E  E     Q    H         
-------------------7--5-----|------------12-------------|
--------------<>7--------8--|--<>7-----<>12-------------|
-----------0----------------|-------9----------L--------|
-----2--4-------------------|---------------------------|
--0-------------------------|----7----------------------|
----------------------------|---------------------------|


   E  E   E   E   Q     Q       E  Q    E  E  E  Q     
--12---------12--14----12----|--7----------------7----|
-----------------------------|-------------8-----8----|
------0----------------------|----------9--9----------|
---------10------------------|-----9----------9-------|
-----------------------------|--7---------------------|
--10-------------------------|------------------------|


   E  E   E   E   Q     Q         E  E  E  E  E  E  E  E   
--12---------12--14----12----|--<>7-----------------------|
-----------------------------|-------------7--8--7--------|
------0----------------------|----------9-----------7-----|
---------10------------------|-------9-----------------9--|
-----------------------------|----7-----------------------|
--10-------------------------|----------------------------|


    H          Q      Q         E    E    H.            
--<>5--------<>7-----------|--<>0--<>2--<>0------------|
---------------------------|---------------------------|
--------------------<>7----|---------------------------|
---------------------------|---------------------------|
----5----------------------|---------------------------|
---------------------------|----2----------------------|


  E  E  E  E  Q     Q          H.           Q       E  E  E  E  E   E   E   E   
--------2--3--5----10----|--<>12-----------------|--------2------------10------|
--------3----------------|-----------------------|-----0-----3--L----------12--|
-----2-------------------|-----------------------|-----------------11----------|
-------------------------|------------------0----|-----------------------------|
-------------------------|-----3-----------------|--0--------------------------|
--0----------------------|-----------------------|-----------------------------|


   W                     E  E  E  E  E  E  E  E     E  E  E  E  E  E  E  E   
--14-----------------||--0-----------------------|--------0-----------------|
---------------------||--------------3-----------|-----------3--2-----------|
--------------------*||-----------0-----0--------|--------2--------2--0-----|
--------------------*||--------4-----------4-----|-----2-----------------4--|
---------------------||-----2-----------------2--|--0-----------------------|
---------------------||--2-----------------------|--------------------------|


                                          NH                 
  E  E  E  E  E  E  E  E     Q    Q       H                  
-----------------7--5-----|--2----0----<>12--------|-------||
--------------7--------8--|------------------------|-------||
-----------0--------------|------------------------|-------||
-----2--4-----------------|------------------------|-------||
--0-----------------------|------------------------|-------||
--------------------------|--2---------------------|-------||




Duration Legend
---------------
W - whole
H - half
Q - quarter
E - 8th
S - 16th
T - 32nd
X - 64th
. - note dotted
|-n-|  - n-tuplets


Tablature Legend
----------------
L - tied note
x - dead note
g - grace note
(n) - ghost note
> - accentuded note
NH - natural harmonic
AH - artificial harmonic
TH - tapped harmonic
SH - semi harmonic
PH - pitch harmonic
h - hammer on
p - pull off
b - bend
br - bendRelease
pb - preBend
pbr - preBendRelease
brb - bendReleaseBend
\n/ - tremolo bar dip
\n - tremolo bar dive
-/n - tremolo bar Release up
/n\ - tremolo bar inverted dip
/n - tremolo bar return
-\n - tremolo bar Release down
S - shift slide
s - legato slide
/ -  slide into from below or out of upwards
\ -  slide into from above or out of downwards
~ - vibrato
W - wide vibrato
tr - trill
TP - tremolo picking
T - tapping
S - slap
P - pop
< - fade in
^ - brush up
v - brush down
Login or Register to remove this ad.