Ads

Tressa the Merchant (Octopath Traveler) Guitar Tab

Submitted: Nov 14, 2018 by guitarsvd (Last updated: Nov 17, 2018)

5
Average: 5 (4 votes)
Download | No audio :(
Game: Octopath Traveler
Composer(s): Yasunori Nishiki
Style: Arrangement, Fingerstyle

Click here for a video example.

AutoScroll: Slow | Medium | Fast
Tressa the Merchant                               


                                                   Arr by Cecil Chau (GuitarSVD)
Track 1



     E  E  E  E  H           E  E  E  E  E  E  E  E     E  E  Q    Q    E  E   
E||-----------------------|--------------------------|--------0---------------|
B||--------2--3--L--------|--------2--0--L--------0--|--2-----2----0----------|
G||--2-----2--2--L--------|--2-----2--2--L--1--2-----|--2----------2-------2--|
D||-----2-----3--L--------|-----2-----0--L-----------|-----2-------3----------|
A||--0--------------------|--0-----------------------|--0---------------0-----|
E||-----------------------|--------------------------|------------------------|


  H        E  E  E  E     Q    Q    E  E  E  E     H        E  E  E  E   
-----------------------|-------5----4--2--------|--2--------L--2--4--7--|
--2--------L-----------|-------2----2-----5--2--|--0-----------0--------|
--2-----------------1--|--2---------------------|-----------------------|
--2-----------2--4-----|------------2-----------|--1--------0-----------|
-----------0-----------|------------------------|-----------------------|
-----------------------|--2---------------------|-----------------------|


  H        E  E  E  E     H        E  E  E  E     Q.     S S E  E  E  E   
--------------2--4--5--|--------------0--2--4--|-------------------------|
--5--------L--2--------|--3--------L--0--------|--2------3-2-0-----------|
-----------------------|--2--------------------|--2-------------2--1--2--|
-----------------------|--0--------------------|-------------1-----------|
--0--------------------|-----------------------|--0----------------------|
-----------2-----------|-----------0-----------|-------------------------|


  H        E  E  E  E     E  E  Q    Q    E  E     H        E  E  E  E   
-----------------------|--------0---------------|-----------------------|
--0--------L--------0--|--2-----2----0----------|--2--------L-----------|
--1-----------1--2-----|--2----------2-------2--|--2-----------------1--|
-----------------------|-----2-------3----3-----|--2-----------2--4-----|
-----------------------|--0----------0----------|-----------0-----------|
--0--------0-----------|------------------------|-----------------------|


                                                        |--3--|            
  Q    Q    E  E  E  E     H        E  E  E  E     Q    E  E  E  H         
-------5----7--5--4--5--|--7--------L-----------|----------------2--------|
-------2----0-----5-----|--0-----------0--2--3--|--5----------------------|
--2---------------------|-----------------------|--2----2--1--2-----------|
------------------------|-----------0-----------|-------------------------|
------------------------|--6--------------------|--0----------------------|
--2---------0-----------|-----------------------|----------------2--------|


       |--3--|                                                              
  Q    E  E  E  Q.     S S    Q.     S S Q    Q       H        E  E  E  E   
---------------------------|-----------------------|--------------------0--|
--0-------------2------0-2-|--3------2-3-2----0----|--------------2--3-----|
--1----1-----1-------------|-----------------------|--2-----------2--------|
----------4----------------|--0--------------------|--2--------------------|
---------------------------|-----------------------|--0--------0--0--L--0--|
--0-------------2----------|-------------0---------|-----------------------|


  E  E  E  E  E  E  E  E     E  E  E  E  E  E  E  E   
--2-----5-----0-----------|--2-----------------------|
--3--3--L--3--3--------3--|--3--3--L--3-----------2--|
-----2--L--2--3--3--L--3--|-----2--L--2-----2--4-----|
--0-----------2-----------|--0-----------0--0--L--0--|
--------------------------|--------------------------|
--------------------------|--------------------------|


  E  E   E  E  E  E  E  E     E  E  E  E  E  E  E  E   
--------10-----9--7--5-----|--5-----------------------|
---------------5--5--L--8--|-----3--L--3--------------|
--7---------7-----6--L--6--|-----2--L--2--------------|
-----7---L--7--------------|--0-----------0--0--2--4--|
---------------0-----------|--------------------------|
--7------------------------|--------------------------|


  E  E  E  E  E   E   E   E     E  E  E  E  Q    Q       E  E  E  E  Q    Q     
--L--7--5--3--5--10---L--10--|--3--2--0--3--2---------|--------0--2--0---------|
-----0--L--0------7---L---7--|--0-----2---------------|-----3-------------0----|
--0--0--L--0------7---L---7--|------------------------|-----4-------------1----|
--------------0--------------|------------------------|------------------------|
-----------------------------|--------1-----2----0----|------------------------|
--3--------------------------|--3---------------------|--4-----------0---------|


  H        E  E  E  E     Q    Q    Q    E  E     Q    Q     Q    Q     
--0--------L--------0--|--2----5----0----2--3--|--2----5----10----9----|
--------------2--3-----|--3---------2----------|--3---------10---------|
-----------------------|-----------------------|-----------------------|
-----------------------|--0--------------------|--0--------------------|
--0--------0-----------|------------0----------|-------------9---------|
-----------------------|-----------------------|-----------------------|


  E  E  E   E   E  E  E   E     E  E  E  E  E  E  E  E   
-----7--9--10--12--------10--|--5-----------8--------7--|
-----7------7------9--L---9--|-----2--L--2-----5--L--5--|
-----7------7------9--L---9--|-----2--L--2-----5--L--5--|
-----------------------------|--------------0-----------|
-----------------------------|--0-----------------------|
--7-------------0------------|--------------------------|


  E  E  E  E  E  E  E  E     E  E  E  E  E  E  E  E     E  E  E  E  Q    Q     
--5--3--2--3--6--------5--|--3--1--0--1--5-----------|-----------1--3----6----|
-----0--L--0-----3--L--3--|-----1--L--1-----6--L--6--|-----3--4----------3----|
-----0--L--0-----3--L--3--|-----2--L--2-----7--L--7--|-----3------------------|
--------------------------|--3-----------0-----------|--1---------------------|
--------------3-----------|--------------------------|------------------------|
--3-----------------------|--------------------------|------------------------|


  E  E  E  E  E  E  E  E     E  E  E  E  H           E  E  E  E  H         
--5-----------------------|--4--------------------|-----------------------|
-----5--L--5-----5--L--5--|-----5--L--5-----------|--------2--3--L--------|
-----4--L--4-----4--L--4--|-----4--L--4-----------|--2-----2--2--L--------|
--------------------------|-----------------------|-----2-----3--L--------|
--------------------------|-----------------------|--0--------------------|
--0-----------0-----------|--0-----------0--------|-----------------------|


                                                       T                  
  E  E  E  E  H             E  E  E  E  E  E  E  E     W                  
------------------------||--4-----------------------|--5----------------||
--------2--0--L---------||-----5--L--5-----5--L--5--|--2----------------||
--2-----2--2--L--------*||-----4--L--4-----4--L--4--|--2----------------||
-----2-----0--L--------*||--------------------------|-------------------||
--0---------------------||--------------------------|--0----------------||
------------------------||--0-----------0-----------|-------------------||




Duration Legend
---------------
W - whole
H - half
Q - quarter
E - 8th
S - 16th
T - 32nd
X - 64th
. - note dotted
|-n-|  - n-tuplets


Tablature Legend
----------------
L - tied note
x - dead note
g - grace note
(n) - ghost note
> - accentuded note
NH - natural harmonic
AH - artificial harmonic
TH - tapped harmonic
SH - semi harmonic
PH - pitch harmonic
h - hammer on
p - pull off
b - bend
br - bendRelease
pb - preBend
pbr - preBendRelease
brb - bendReleaseBend
\n/ - tremolo bar dip
\n - tremolo bar dive
-/n - tremolo bar Release up
/n\ - tremolo bar inverted dip
/n - tremolo bar return
-\n - tremolo bar Release down
S - shift slide
s - legato slide
/ -  slide into from below or out of upwards
\ -  slide into from above or out of downwards
~ - vibrato
W - wide vibrato
tr - trill
TP - tremolo picking
T - tapping
S - slap
P - pop
< - fade in
^ - brush up
v - brush down
Login or Register to remove this ad.

1 comment on Tressa the Merchant

Amazing!

5

Amazing!