The Sunlands (Octopath Traveler) Guitar Tab

Submitted: Sep 04, 2018 by StyrofoamShotgun (Last updated: Sep 08, 2018)

0
Download | Listen
Game: Octopath Traveler
Composer(s): Yasunori Nishiki
Style: 2 or more instruments, Transcription

AutoScroll: Slow | Medium | Fast
Time signature: 3/4
BPM: 142
Tuning: Eb Standard

Rhythm

Intro

                 Eb
    H.           Q   E E E E  Q   E E E E  Q   E E E E  Q   E E E E
Eb||------------|0---0-0-0-0-|0---0-0-0-0-|0---0-0-0-0-|0---0-0-0-0-|
Bb||------------|0---0-0-0-0-|0---0-0-0-0-|0---0-0-0-0-|0---0-0-0-0-|
Gb||------------|1---1-1-1-1-|1---1-1-1-1-|1---1-1-1-1-|1---1-1-1-1-|
Db||------------|2---2-2-2-2-|2---2-2-2-2-|2---2-2-2-2-|2---2-2-2-2-|
Ab||------------|2---2-2-2-2-|2---2-2-2-2-|2---2-2-2-2-|2---2-2-2-2-|
Eb||------------|0---0-0-0-0-|0---0-0-0-0-|0---0-0-0-0-|0---0-0-0-0-|

Bb                        D
Q   E E E E  Q   E E E E  Q   E E E E  Q   E E E E
2---2-2-2-2-|2---2-2-2-2-|6---6-6-6-6-|6---6-6-6-6-||
4---4-4-4-4-|4---4-4-4-4-|8---8-8-8-8-|8---8-8-8-8-||
4---4-4-4-4-|4---4-4-4-4-|8---8-8-8-8-|8---8-8-8-8-||
4---4-4-4-4-|4---4-4-4-4-|8---8-8-8-8-|8---8-8-8-8-||
2---2-2-2-2-|2---2-2-2-2-|6---6-6-6-6-|6---6-6-6-6-||
2---2-2-2-2-|2---2-2-2-2-|6---6-6-6-6-|6---6-6-6-6-||

"A" section

Eb
Q   E E E E  Q   E E E E  Q   E E E E  Q   E E E E
0---0-0-0-0-|0---0-0-0-0-|0---0-0-0-0-|0---0-0-0-0-|
0---0-0-0-0-|0---0-0-0-0-|0---0-0-0-0-|0---0-0-0-0-|
1---1-1-1-1-|1---1-1-1-1-|1---1-1-1-1-|1---1-1-1-1-|
2---2-2-2-2-|2---2-2-2-2-|2---2-2-2-2-|2---2-2-2-2-|
2---2-2-2-2-|2---2-2-2-2-|2---2-2-2-2-|2---2-2-2-2-|
0---0-0-0-0-|0---0-0-0-0-|0---0-0-0-0-|0---0-0-0-0-|

F                         Gm                         Play A section 4 times
Q   E E E E  Q   E E E E  Q   E E E E  Q   E E E E
2---2-2-2-2-|2---2-2-2-2-|4---4-4-4-4-|4---4-4-4-4-:|
2---2-2-2-2-|2---2-2-2-2-|4---4-4-4-4-|4---4-4-4-4-:|
3---3-3-3-3-|3---3-3-3-3-|4---4-4-4-4-|4---4-4-4-4-:|
4---4-4-4-4-|4---4-4-4-4-|6---6-6-6-6-|6---6-6-6-6-:|
4---4-4-4-4-|4---4-4-4-4-|6---6-6-6-6-|6---6-6-6-6-:|
2---2-2-2-2-|2---2-2-2-2-|4---4-4-4-4-|4---4-4-4-4-:|

"B" Section
Eb                        Bb
Q   E E E E  Q   E E E E  Q   E E E E  Q   E E E E
0---0-0-0-0-|0---0-0-0-0-|2---2-2-2-2-|2---2-2-2-2-|
0---0-0-0-0-|0---0-0-0-0-|4---4-4-4-4-|4---4-4-4-4-|
1---1-1-1-1-|1---1-1-1-1-|4---4-4-4-4-|4---4-4-4-4-|
2---2-2-2-2-|2---2-2-2-2-|4---4-4-4-4-|4---4-4-4-4-|
2---2-2-2-2-|2---2-2-2-2-|2---2-2-2-2-|2---2-2-2-2-|
0---0-0-0-0-|0---0-0-0-0-|2---2-2-2-2-|2---2-2-2-2-|

F                         Cm                         Play B section 3 times through in full 
                          __________________________
                         |1, 2, 3
Q   E E E E  Q   E E E E  Q   E E E E  Q   E E E E
2---2-2-2-2-|2---2-2-2-2-|4---4-4-4-4-|4---4-4-4-4-:|
2---2-2-2-2-|2---2-2-2-2-|4---4-4-4-4-|4---4-4-4-4-:|
3---3-3-3-3-|3---3-3-3-3-|4---4-4-4-4-|4---4-4-4-4-:|
4---4-4-4-4-|4---4-4-4-4-|6---6-6-6-6-|6---6-6-6-6-:|
4---4-4-4-4-|4---4-4-4-4-|6---6-6-6-6-|6---6-6-6-6-:|
2---2-2-2-2-|2---2-2-2-2-|4---4-4-4-4-|4---4-4-4-4-:|

On 4th time through play then go back to A:

F
 ___________
|4
Q   E E E E  Q   E E E E  Q   E E E E  Q   Q   Q 
2---2-2-2-2-|2---2-2-2-2-|2---2-2-2-2-|2-----------||
2---2-2-2-2-|2---2-2-2-2-|2---2-2-2-2-|2-----------||
3---3-3-3-3-|3---3-3-3-3-|3---3-3-3-3-|3-----------||
4---4-4-4-4-|4---4-4-4-4-|4---4-4-4-4-|4-----------||
4---4-4-4-4-|4---4-4-4-4-|4---4-4-4-4-|4-----------||
2---2-2-2-2-|2---2-2-2-2-|2---2-2-2-2-|2-----------||


Lead

Intro
        Q   Q    g  H.           Q   Q g Q    H.           
Eb||------------|--------------|------------|------------|
Bb||------------|--------------|------5h7---|------------|
Gb||----4---6---|6s8-----------|8---6-------|8-----------|
Db||------------|--------------|------------|------------|
Ab||------------|--------------|------------|------------|
Eb||------------|--------------|------------|------------|


E E E E E E  H.           Q   Q   Q    H       E E  H.
------------|------------|------------|------------|------------||
----------5s|7-----------|7---5-------|------------|------------||
------6-8---|------------|--------8---|6-------4h6s|8-----------||
6-8-9-------|------------|------------|------------|------------||
------------|------------|------------|------------|------------||
------------|------------|------------|------------|------------||

"A" Section 1

H       Q    H.           g Q   Q   Q    H.
------------|------------|--------------|------------|
------------|------------|5h7-----------|------------|
4-------6---|8-----------|------6---8---|6-----------|
------------|------------|--------------|------------|
------------|------------|--------------|------------|
------------|------------|--------------|------------|

H       Q    H.           Q   Q g Q    H.
------------|------------|------------|------------|
------------|------------|------------|------------|
3-------4---|6-----------|6---4-4s8---|------------|
------------|------------|------------|8-----------|
------------|------------|------------|------------|
------------|------------|------------|------------|

H       Q    H.           g Q   Q   Q    H.
------------|------------|--------------|------------|
------------|------------|5h7-----------|------------|
4-------6---|8-----------|------6---8---|6-----------|
------------|------------|--------------|------------|
------------|------------|--------------|------------|
------------|------------|--------------|------------|

H       Q    Q g Q   Q    H       Q    H.
------------|------------|------------|------------|
------------|------------|------------|------------|
3-------3---|4-4s6---4---|3-----------|------------|
------------|------------|--------6---|6-----------|
------------|------------|------------|------------|
------------|------------|------------|------------|


"A" Section 2

H       Q    H.           g Q   Q   Q    H.
------------|------------|--------------|------------|
------------|------------|5h7-----------|------------|
4-------6---|8-----------|------6---8---|6-----------|
------------|------------|--------------|------------|
------------|------------|--------------|------------|
------------|------------|--------------|------------|

H       Q    H.           Q   Q g Q    H.
------------|------------|------------|------------|
------------|------------|------------|------------|
3-------4---|6-----------|6---4-4s8---|------------|
------------|------------|------------|8-----------|
------------|------------|------------|------------|
------------|------------|------------|------------|

H       Q    H.           g Q   Q   Q    H.
------------|------------|--------------|------------|
------------|------------|5h7-----------|------------|
4-------6---|8-----------|------6---8---|6-----------|
------------|------------|--------------|------------|
------------|------------|--------------|------------|
------------|------------|--------------|------------|

H       Q    Q g Q   Q    H       Q    Q   Q   Q
------------|------------|------------|------------||
------------|------------|------------|--------4---||
3-------3---|4-4s6---4---|3-----------|----4-------||
------------|------------|--------6---|6-----------||
------------|------------|------------|------------||
------------|------------|------------|------------||

"B" Section 1
g H.         Q   Q   Q    H.            Q   Q   Q
------------|------------|------------|-------------|
4s9---------|9---7---5---|7-----------|L7-----------|
------------|------------|------------|-----6---8---|
------------|------------|------------|-------------|
------------|------------|------------|-------------|
------------|------------|------------|-------------|

g H.         Q   Q   Q    H.            Q  Q   Q
------------|------------|------------|------------|
5s7---------|7---5---4---|------------|--------4---|
------------|------------|6-----------|----4-------|
------------|------------|------------|/6----------|
------------|------------|------------|------------|
------------|------------|------------|------------|

g H.         Q   Q   Q    H.            Q   Q   Q
------------|------------|------------|-------------|
4s9---------|9---7---5---|7-----------|L7---7---9---|
------------|------------|------------|-------------|
------------|------------|------------|-------------|
------------|------------|------------|-------------|
------------|------------|------------|-------------|


g H.         Q   Q   Q    H.            Q  Q   Q
------------|------------|------------|------------|
9s11--------|L11-14--12--|9-----------|--------4---|
------------|------------|------------|----4-------|
------------|------------|------------|/6----------|
------------|------------|------------|------------|
------------|------------|------------|------------|

"B" Section 2
g H.         Q   Q   Q    H.            Q   Q   Q
------------|------------|------------|-------------|
4s9---------|9---7---5---|7-----------|L7-----------|
------------|------------|------------|-----6---8---|
------------|------------|------------|-------------|
------------|------------|------------|-------------|
------------|------------|------------|-------------|

g H.         Q   Q   Q    H.            Q  Q   Q
------------|------------|------------|------------|
5s7---------|7---5---4---|------------|--------4---|
------------|------------|6-----------|----4-------|
------------|------------|------------|/6----------|
------------|------------|------------|------------|
------------|------------|------------|------------|

g H.         Q   Q   Q    H.            Q   Q   Q
------------|------------|------------|-------------|
4s9---------|9---7---5---|7-----------|L7-----------|
------------|------------|------------|-----6---8---|
------------|------------|------------|-------------|
------------|------------|------------|-------------|
------------|------------|------------|-------------|

g H. 
------------|------------|------------|------------||
5s7---------|------------|------------|------------||
------------|------------|------------|------------||
------------|------------|------------|------------||
------------|------------|------------|------------||
------------|------------|------------|------------||


Tablature Legend
----------------
L - tied note
x - dead note
g - grace note
(n) - ghost note
> - accentuded note
NH - natural harmonic
AH - artificial harmonic
TH - tapped harmonic
SH - semi harmonic
PH - pitch harmonic
h - hammer on
p - pull off
b - bend
br - bendRelease
pb - preBend
pbr - preBendRelease
brb - bendReleaseBend
\n/ - tremolo bar dip
\n - tremolo bar dive
-/n - tremolo bar Release up
/n\ - tremolo bar inverted dip
/n - tremolo bar return
-\n - tremolo bar Release down
S - shift slide
s - legato slide
/ -  slide into from below or out of upwards
\ -  slide into from above or out of downwards
~ - vibrato
W - wide vibrato
tr - trill
TP - tremolo picking
T - tapping
S - slap
P - pop
< - fade in
^ - brush up
v - brush down
Login or Register to remove this ad.