Ads

Primrose Theme (Octopath Traveler) Guitar Tab

Submitted: Jul 17, 2018 by laoise

5
Average: 5 (3 votes)
Download | Listen
Game: Octopath Traveler
Composer(s): Yasunori Nishiki
Style: Arrangement, Fingerstyle

AutoScroll: Slow | Medium | Fast
Octopath Traveler - Primrose Theme                                  
Arranged by Laoise Earle

      ^                ^                   ^                ^                 
      Q    E  E  E  E  Q    E  E  E  E     Q    E  E  E  E  Q    E  E  E  E   
E||---1-------1-------------------------|------------------------------------|
B||---3-------------3--1-------1--------|--3-------3-------------------------|
G||*--2----------------2-------------2--|--3-------------3--2-------2--------|
D||*--0----0-----0-----2----------------|--3----------------3-------------3--|
A||--------------------0----0-----0-----|--1----1-----1-----3----------------|
E||-------------------------------------|-------------------1----1-----1-----|


  ^                ^                   ^                ^                 
  Q    E  E  E  E  Q    E  E  E  E     Q    E  E  E  E  Q    E  E  E  E   
------------------------------------|---------------------------------0--|
-------------------1-------1--------|------------------------------3-----|
--3-------3--------0-------------0--|--2-------2--------2-------2--------|
--5-------------5--2----------------|--3-------------3--2----------------|
--5----------------3----3-----3-----|--3----------------0----0-----------|
--3----3-----3----------------------|--1----1-----1----------------------|


  ^               ^                 ^               ^               
  H        E   E  Q    Q    Q       Q.     S S Q    H        E  E   
--1--------3p--1--0----5----0----|---------0-----------------------|
--3---------------1--------------|--3--------3-1-------------------|
--2---------------2--------------|--3---------------2--------0--2--|
--0------------------------------|--3---------------3--------------|
------------------0--------------|--1---------------3--------------|
---------------------------------|------------------1--------------|


  ^                ^                 ^                                                             
  E  E  E  E  Q    Q    Q    Q       Q.     S S Q    H.              W                E  E  E  E   
-------------------0----1----0----|---------0---------------------|----------------------------0--|
-----------1--3----1--------------|--3--------3-1----3------------|-------------------------3-----|
--3--2--3----------0--------------|--3---------------2------------|----------------------2--------|
--0-------------------------------|--3---------------0------------|-------------------------------|
-------------------3--------------|--1----------3-----------------|-------------------------------|
--3-------------------------------|-------------------------------|-------------------------------|


  ^               ^                 ^               ^               
  H        E   E  Q    Q    Q       Q.     S S Q    H        E  E   
--1--------3p--1--0----5----0----|---------0-----------------------|
--3---------------1--------------|--3--------3-1-------------------|
--2---------------2--------------|--3---------------2--------0--2--|
--0------------------------------|--3---------------3--------------|
------------------0--------------|--1---------------3--------------|
---------------------------------|------------------1--------------|


  ^              ^                 ^               ^                
  Q.     E  Q    Q    Q    Q       Q.     S S Q    Q.     E  E  E   
-----------------0----1----3----|--5------6-5------5---------------|
---------1--3----1--------------|-------------8-----------------5--|
--3--------------0--------------|-------------------------7--7-----|
--0-----------------------------|--3---------------7---------------|
-----------------3--------------|--3---------------7---------------|
--3-----------------------------|----------------------------------|


  ^              ^                 ^               ^               
  Q.     E  Q    Q    Q    Q       Q.     S S Q    H        E  E   
------------5----8----5---------|---------0-----------------------|
--6------8-----------------5----|--3--------3-1-------------------|
--7--------------5--------------|--3---------------2--------0--2--|
--7--------------7--------------|--3---------------3--------------|
--------------------------------|--1---------------3--------------|
--------------------------------|------------------1--------------|


  ^                ^                 ^                                
  E  E  E  E  Q    Q    Q    Q       Q.     S S Q    Q.     E  E  E   
-------------------0----1----0----|---------0------------------3--5--|
-----------1--3----1--------------|--3--------3-1----3------3--------|
--3--2--3----------0--------------|--3---------------2---------------|
--0-------------------------------|--3---------------0---------------|
-------------------3--------------|--1----------3--------------------|
--3-------------------------------|----------------------------------|


  ^                ^                   ^                             
  H        E   E   Q     Q     Q       Q.     S S Q    H.            
--6--------8------------10----------|---------5---------------------|
--------------11--10----------10----|--8--------8-6-----------------|
--0---------------10----------------|------------------7------------|
--0---------------------------------|--8---------------8------------|
-------------------8----------------|--6---------------8------------|
------------------------------------|-------------------------------|


                                                                        ^            ^             
  E  E  E  E  Q    Q    Q    Q       Q.     E  E  E  Q.     E  E  E     H.           H.            
-----------1--3---------3----6----|--5------3--2--3--5---------3--5--|--6------------5------------|
--4--3--4----------3--------------|-------------------------3--------|----------------------------|
-------------------3--------------|----------------------------------|--0-------------------------|
-------------------3--------------|--4---------------0---------------|--0------------3------------|
--3-------------------------------|----------------------------------|---------------3------------|
----------------------------------|----------------------------------|----------------------------|


  ^            ^                                                  ^                            
  H.           H.              E  E  E  E  Q    Q    Q    Q       W                Q    E  E   
--3------------1------------|-----------1--3---------3----6----|--6----------------L----8--6--|
---------------3------------|--4--3--4----------3--------------|--8---------------------------|
--3-------------------------|-------------------3--------------|------------------------------|
--1-------------------------|-------------------3--------------|--0---------------------------|
---------------1------------|--3-------------------------------|------------------------------|
----------------------------|----------------------------------|------------------------------|


  ^                   
  W.                  
--5-----------------||
--5-----------------||
--6----------------*||
-------------------*||
--0-----------------||
--------------------||




Duration Legend
---------------
W - whole
H - half
Q - quarter
E - 8th
S - 16th
T - 32nd
X - 64th
. - note dotted
|-n-|  - n-tuplets


Tablature Legend
----------------
L - tied note
x - dead note
g - grace note
(n) - ghost note
> - accentuded note
NH - natural harmonic
AH - artificial harmonic
TH - tapped harmonic
SH - semi harmonic
PH - pitch harmonic
h - hammer on
p - pull off
b - bend
br - bendRelease
pb - preBend
pbr - preBendRelease
brb - bendReleaseBend
\n/ - tremolo bar dip
\n - tremolo bar dive
-/n - tremolo bar Release up
/n\ - tremolo bar inverted dip
/n - tremolo bar return
-\n - tremolo bar Release down
S - shift slide
s - legato slide
/ -  slide into from below or out of upwards
\ -  slide into from above or out of downwards
~ - vibrato
W - wide vibrato
tr - trill
TP - tremolo picking
T - tapping
S - slap
P - pop
< - fade in
^ - brush up
v - brush down
Login or Register to remove this ad.

1 comment on Primrose Theme

Thank you so much!

Thank you so much!