Ophilia the Cleric (Octopath Traveler) Guitar Tab

Submitted: Aug 05, 2018 by guitarsvd (Last updated: Aug 05, 2018)

5
Average: 5 (1 vote)
Download | No audio :(
Game: Octopath Traveler
Composer(s): Yasunori Nishiki
Style: Arrangement, Artificial harmonics, Fingerstyle, Natural harmonics

Click here for a video example.

AutoScroll: Slow | Medium | Fast
Ophilia the Cleric                                

Track 1



     H        E  E  E   E     E  E  E    E  E  E  E  E   
E||------------------------|----------------------------|
B||------------------------|--0-------------L--0--1--3--|
G||--------------2--0h--2--|-----------<>0-----------L--|
D||------------------------|--------0-------------------|
A||------------------------|-----2----------------------|
E||------------------------|--3-------------------------|


  E  E  E    E  E  E   E  E     E  E  E    E  Q.     S S  
-----5-------------8p--7-----|---------------------------|
--3-----------------------8--|--3-------------L------0-1-|
-----------------------------|-----------<>0--L----------|
--------2--<>4--L------------|--------0------------------|
-----5-----------------------|-----2---------------------|
--2--------------------------|--0------------------------|


  E  E  E    E  E  E  E  E     E  E  E  E  E  E  E  E   
----------------------------|--------5--------5--7--5--|
--3-------------L--3--5--3--|--5-----5--------5--------|
-----------<>0--L-----------|-----6-----6--5-----------|
--0-----0-------------------|--------------------------|
-----2----------------------|--0-----------------------|
----------------------------|--------------------------|


  E  E  E  E  E  E  E  E      E  E  E  S S E  E  E  E   
--------3--------3--5--3--|--10--------8-6-------------|
--3-----3-----------3-----|---8-----8--8---8-----6-----|
-----4-----4--3-----------|---8--8------------8-----8--|
--------------------------|---6------------------------|
--------------------------|---6------------------------|
--3-----------------------|----------------------------|


  E    E    E    Q      E    E    E       H.           E  E   
--3----------------------------------|-----------------0--1--|
--0------------<>1---------<>1-------|--<>0------------------|
--0-------<>0---------<>0-------<>0--|----0------------------|
-----<>0-----------------------------|-----------------------|
-------------------------------------|-----------------------|
--3----------------------------------|-----------------------|


  E  E  E  E  E  E  E  E     E    E    E    E  E  E  E  E   
--3-----8-----7-----5-----|--3--------------------0--0--1--|
--0--------------------0--|--1--<>1--<>0--<>1--------0-----|
-----------0--7-----5-----|--0---------0-------L--0--------|
-----0-----------0--------|--------------------------------|
--------------------------|--0-----------------------------|
--1-----------3-----------|--------------------3-----------|


  E  E  Q    Q    E  E     Q      Q      E    E    E  E   
--3---------------------|--0-----------<>3--<>1--<>0--1--|
-----1--1----1----3--1--|--1----<>1-------------------1--|
-----2-------1----1-----|--2-----------------------0-----|
-------------2----------|--------------------------------|
------------------------|--0-----------------------------|
--1----------0----------|----------------3---------------|


  E  E  E  E  E  E  Q        E  E  E   E  E  E  E  E   
--3-----8-----7-----8----|--10--------12--8-----5--7--|
--------------0----------|---9------------5-----5-----|
-----0-----7-----0--9----|---9-----9------5--5--------|
-------------------------|---9--9---------------------|
-------------------------|----------------0-----------|
--1-----------3----------|---0------------------------|


    Q      E    E    E    E    E    E       H.           E  E   
---------<>3--<>1--<>0-----------------|-----------------0--1--|
--<>1-------------------<>3--<>1--<>3--|--<>3------------1--3--|
---------------------------------------|----0------------------|
----3----------------------------------|-----------------------|
----1----------------------------------|-----------------------|
---------------------------------------|----3------------------|


  S S S S S S S S S S S S S S S S    S S S S S S S S S S S S S S S S  
--3-------8-------7-------5-------|--3-------------------0---0---1---|
----0-------0-------0-------0-----|--1---1---0---1-------------------|
--0---0-------0-------0-------0---|--0-0-0-----0-0-----0---0---0---0-|
--------0-------0-------0-------0-|--------2-------2-----------------|
----------------------------------|--0-------------------------------|
--1---------------3---------------|------------------3---------------|


  S S S S S S S S S S S S E  E     E  E  E  E  E  E  E  E   
--3-----------------------------|--0-----------------------|
------1---1-------------1-3--1--|--1--1--0--1-----1--0--1--|
------2-----2---2-----1---1-----|--2-----------0-----------|
----3---3-----3-----2-----------|--2-----------------------|
--------------------------------|--0-----------------------|
--1---------------0-------------|--------------3-----------|


  E  E  E  E  E  E  Q       E  E  E  E  Q    Q       W                   
--3-----1-----0----------|------------------------|--------------------||
--------------1-----1----|--8-----6---------------|--3-----------------||
-----0-----0--------2----|--8-----8-----8---------|--2----------------*||
-----------------3-------|-----8-----8-------8----|--4----------------*||
--------------0----------|--6---------------------|--5-----------------||
--1----------------------|------------------------|--------------------||


    Q      Q      H           E  E  E  E    H          
---------------------------|--------------<>3--------||
---------------------------|-----------0-------------||
--<>2----<>0----<>2--------|--------0----------------||
---------------------------|-----0-------------------||
---------------------------|-------------------------||
---------------------------|--3----------------------||




Duration Legend
---------------
W - whole
H - half
Q - quarter
E - 8th
S - 16th
T - 32nd
X - 64th
. - note dotted
|-n-|  - n-tuplets


Tablature Legend
----------------
L - tied note
x - dead note
g - grace note
(n) - ghost note
> - accentuded note
NH - natural harmonic
AH - artificial harmonic
TH - tapped harmonic
SH - semi harmonic
PH - pitch harmonic
h - hammer on
p - pull off
b - bend
br - bendRelease
pb - preBend
pbr - preBendRelease
brb - bendReleaseBend
\n/ - tremolo bar dip
\n - tremolo bar dive
-/n - tremolo bar Release up
/n\ - tremolo bar inverted dip
/n - tremolo bar return
-\n - tremolo bar Release down
S - shift slide
s - legato slide
/ -  slide into from below or out of upwards
\ -  slide into from above or out of downwards
~ - vibrato
W - wide vibrato
tr - trill
TP - tremolo picking
T - tapping
S - slap
P - pop
< - fade in
^ - brush up
v - brush down
Login or Register to remove this ad.