Olberic,the Warrior (Octopath Traveler) Guitar Tab

Submitted: Aug 05, 2018 by Ranulf (Last updated: Aug 05, 2018)

5
Average: 5 (1 vote)
Download | Listen
Game: Octopath Traveler
Composer(s): Yasunori Nishiki
Style: Transcription

AutoScroll: Slow | Medium | Fast
Olberic, the Warrior
Octopath Traveler
Nintendo Switch
Composed by Yasuhiro Nishiki
Tabbed by Ranulf
8/5/2018


e||-------------------------------------------------------7--8--7------7---------------------------------
B||-----------------------------------------8--10-----10-----------10--------8-----8--10--11--10--8--10--
G||--------10--9--7------7--------7--9--10--------------------------------9------------------------------
D||--7---------------10--------7-------------------------------------------------------------------------
A||------------------------------------------------------------------------------------------------------
E||------------------------------------------------------------------------------------------------------

--------------------------------------------------------------------------------16--15--13------13--
----------------------------------------------------------------------------13--------------16------
--7--10-----7--9--10--9--7--9--5-----7--5--------------5--6--7--------9-----------------------------
-------------------------------------------8-----7--8-----------------------------------------------
----------------------------------------------------------------------------------------------------
----------------------------------------------------------------------------------------------------

---------13--15--16--18--20-----20-----22--23--22--20--22-------------18--20--21--20--18--20----------
--13-------------------------------------------------------20--23-----------------------------18--21--
------------------------------------------------------------------------------------------------------
------------------------------------------------------------------------------------------------------
------------------------------------------------------------------------------------------------------
------------------------------------------------------------------------------------------------------

------------------------------------------------------------------------------------------------------
--18--20--21--20--18--20--16-----18--16-----------------16--17--18------------------------------------
-----------------------------------------18-----17--18--------------------------10-----9--7-----------
--------------------------------------------------------------------------7---------------------8-----
------------------------------------------------------------------------------------------------------
------------------------------------------------------------------------------------------------------

-------------------------------------------------------------------------------------------------------------
----------------13-----12--10--------------------------------------------------------------------------------
-------------------------------10--12--14-----15-----14--12------12-------------------------------12--14-----
--10-----10--------------------------------------------------15---------15-----14--12---------15-------------
---------------------------------------------------------------------------------------12--------------------
-------------------------------------------------------------------------------------------------------------

-----------------------------------------------------------------------------------------||
-------------------------------------------------------------------9--10-----15-----12---||
--14h15p14--12---------------------14-----10-----12-----9--10--12-----------------------*||
----------------15--14--15--14----------------------------------------------------------*||
-----------------------------------------------------------------------------------------||
-----------------------------------------------------------------------------------------||

Login or Register to remove this ad.

1 comment on Olberic,the Warrior

U N B E N D I N G

G N I D N E B N U