Olberic the Warrior (Octopath Traveler) Guitar Tab

Submitted: Dec 01, 2018 by guitarsvd (Last updated: Dec 02, 2018)

5
Average: 5 (1 vote)
Download | Listen
Game: Octopath Traveler
Composer(s): Yasunori Nishiki
Style: Arrangement, Fingerstyle, Natural harmonics, Percussion, Tremolo

Click here for a video example.

AutoScroll: Slow | Medium | Fast
Olberic the Warrior                               


                                                     arr. Cecil Chau (GuitarSVD)
Track 1



     E  S S E  E  E  E  S S S S    E  S S E  E  Q    E  E   
E||-----3-2-0-----0-----0-2-3-5-|--7-----------------7--9--|
B||--0---------3-----0--0-------|--------------------------|
G||-----0---------0---------0---|--------------------7--9--|
D||--2------2-------------------|-----5-4-2--0-------5-----|
A||-----------------------------|---------2-----2-------9--|
E||--0------------------0-------|--3-----------------------|


   S S E  E  E  E  S S E  S S    S S E  E  E  S S E  E  S S  
--10-9-7--9-----5---------5-7-|--8-7-5--7--0--3---------0-2-|
-------7-----7----------------|--5--------------------------|
---7------7-----6-------------|--5------5-----0-------------|
----------------4--6-4-6------|-----------------4-2--4--0---|
--------------------------7---|--0--------------------------|
---7--------------------------|---------------0-------------|


  S S E  E  E  S S E  S S S S    H.           Q     
--3-2-0--2-----0--------------|--0------------2----|
------------3----3-1--0-1-3-4-|--0------------3----|
------------------------------|---------------2----|
------------------------------|--------------------|
--3------2-----0--------------|--------------------|
----------------------2-------|--0-----------------|


  S S S S E  E  S S E  S S S S     E  S S E   E  Q     E   E   
------6-5-3-----3------3-5-6-8-|--10------------------10--12--|
--3-----3----6--3---3--3---3---|---6--6-----------------------|
------3---3---------3--3---3---|--------9-7------7-----7---9--|
----5-------------5------------|-------------10--8------------|
-------------------------------|------------------------------|
--3-------------3--------------|---6-------------6------------|


   S  S  E   E  E  S S S S E  S  S     S  S E   E  E  S S E  E  S S  
--13-12-10--12--5--8----------8-10-|--11-10-8--10-----6---------3-5-|
--------10--10--6--5-----5---------|---8-----------8--3-------------|
--------10-------------5---5-------|------------8-------5-3--L------|
---0-----------------7-------------|-------------------------5------|
-------------------0---------------|--------------------------------|
-----------------------------------|---8--------------3-------------|


  S S E  E  E  S S E  S S S S    Q.     E  E  E  E  E     H        Q.     E   
--6-5----5-----3-1--------1-2-|--3---------------------|-----------3------2--|
------8-----6------4--3-4-3---|--3---------------------|--0--------5------3--|
----------------------2-------|--3---------------------|--0--------4---------|
----------------------0-------|------------5-----5--4--|--2------------------|
--6------5-----3--------------|---------5-----5--------|---------------------|
------------------------------|--3---------------------|--0--------0---------|


  Q    Q    H           H         Q.     E     Q    Q    Q    Q     
--0------------------|-----------10------9--|--7----3----5----7----|
--1----1----3--------|------------7---------|--0-------------------|
-------0----0--------|--7-------------------|-------0---------0----|
---------------------|--9-------------------|------------0---------|
--3------------------|----------------------|----------------------|
------------3--------|--7-------------------|--3-------------------|


  Q.     E  E  E  S S S S    Q.     E  E  Q    S S    Q.       E  E  E  E  E   
--8------7--5-----5-------|--3------2--0-------3-5-|--7------8g7--5--3--2--3--|
--5------5-----8--------3-|--5------------0--------|--0-----------0-----------|
--5---------5-----2-4-5---|--4---------0-----------|--0-----------------0-----|
--------------------------|---------------2--------|--------------------------|
--0-----------------------|------------------------|--------------------------|
--------------------------|--0---------------------|--8-----------------------|


                                          TP                       
  W                   W                   E  E  E  E  E  E  E  E   
-------------------|--7----------------|--3-----------------------|
--7----------------|--7----------------|--------------0-----------|
--9----------------|--8----------------|-----------0-----0--------|
--9----------------|--9----------------|--------2-----------2-----|
-------------------|-------------------|-----2-----------------2--|
--7----------------|--7----------------|--0-----------------------|


  TP                           TP                 TP     
  E  E  E  E  E  E  S S S S    E  E  E  E  E  E   E  E   
--5-----------------0-2-3-5-|--7-----------------12-----|
-----------2--5--2----------|--------------0------0-----|
--------2-----------2-------|-----------0-----0------0--|
-----2------------------2---|--------2------------------|
--0-------------------------|-----2---------------------|
----------------------------|--0------------------------|


  TP                                                         
  E  E  E  E   E  E   E  E       E  S S E  E  E  E  S S S S  
--9--------------------------||-----3-2-0-----0-----0-2-3-5-|
--------------10-------------||--0---------3-----0--0-------|
--------6--9------9---------*||-----0---------0---------0---|
-----7---------------11-----*||--2------2-------------------|
--0----------------------0---||-----------------------------|
-----------------------------||--0------------------0-------|


  E  S S E  E  Q    E  E      S S E  E  E  E  S S E  S S  
--7-----------------7--9--|--10-9-7--9-----5---------5-7-|
--------------------------|-------7-----7----------------|
--------------------7--9--|---7------7-----6-------------|
-----5-4-2--0-------5-----|----------------4--6-4-6------|
---------2-----2-------9--|--------------------------7---|
--3-----------------------|---7--------------------------|


  S S E  E  E  S S E  E  S S    S S E  E  E  S S E  S S S S  
--8-7-5--7--0--3---------0-2-|--3-2-0--2-----0--------------|
--5--------------------------|------------3----3-1--0-1-3-4-|
--5------5-----0-------------|------------------------------|
-----------------4-2--4--0---|------------------------------|
--0--------------------------|--3------2-----0--------------|
---------------0-------------|----------------------2-------|


                                                         NH                 
  H.           E  E     S S E  E  E  S S E  S S S S      W                  
--0------------0--2--|--3-2-0--2-----0--------------|--<>0----------------||
--0------------------|------------3----3-1--0-1-3-4-|--<>0----------------||
---------------------|------------------------------|--<>0----------------||
---------------------|------------------------------|---------------------||
---------------------|--3------2-----0--------------|---------------------||
--0------------------|----------------------2-------|----0----------------||




Duration Legend
---------------
W - whole
H - half
Q - quarter
E - 8th
S - 16th
T - 32nd
X - 64th
. - note dotted
|-n-|  - n-tuplets


Tablature Legend
----------------
L - tied note
x - dead note
g - grace note
(n) - ghost note
> - accentuded note
NH - natural harmonic
AH - artificial harmonic
TH - tapped harmonic
SH - semi harmonic
PH - pitch harmonic
h - hammer on
p - pull off
b - bend
br - bendRelease
pb - preBend
pbr - preBendRelease
brb - bendReleaseBend
\n/ - tremolo bar dip
\n - tremolo bar dive
-/n - tremolo bar Release up
/n\ - tremolo bar inverted dip
/n - tremolo bar return
-\n - tremolo bar Release down
S - shift slide
s - legato slide
/ -  slide into from below or out of upwards
\ -  slide into from above or out of downwards
~ - vibrato
W - wide vibrato
tr - trill
TP - tremolo picking
T - tapping
S - slap
P - pop
< - fade in
^ - brush up
v - brush down
Login or Register to remove this ad.