Ads

Melancholy (Octopath Traveler) Guitar Tab

Submitted: Mar 09, 2020 by plapoa (Last updated: Mar 16, 2020)

5
Average: 5 (1 vote)
Download | Listen
Game: Octopath Traveler
Composer(s): Yasunori Nishiki
Style: Arrangement

AutoScroll: Slow | Medium | Fast
Song: Melancholy 
Game: Octopath Traveler
Composer: Yasunori Nishiki
Tab: plapoa


E|---------------|-------0----|----------------|----------------------|---------------|
B|-----------0---|-1----------|-3----0---------|----------------------|-3---------0---|
G|-------2-------|------------|-----------0----|-2----------------2---|-------2-------|
D|---------------|-2----------|-2--------------|-4------------4-------|---------------|
A|---------------|-0----------|----------------|-5--------5-----------|---------------|
E|---------------|------------|-3--------------|------2---------------|---------------|


E|-------0----|-----------3----|-0--------------------|-----------0---|-1-----3----|
B|-1----------|-3----0---------|----------------------|-1-----3-------|------------|
G|------------|----------------|-2------------0---2---|---------------|-2----------|
D|-2----------|-2--------------|-3--------------------|---------------|-0----------|
A|-0----------|----------------|----------3-----------|---------------|------------|
E|------------|-3--------------|------1---------------|---------------|------------|


E|-0--------------|-------------------------|-----------0---|-1----0---------|-0--------------|
B|------3----1----|-0---1---3-----------0---|-3-----3-------|-----------3----|-1--------------|
G|-2--------------|-0---------------0-------|---------------|-3--------------|------2---------|
D|----------------|-------------0-----------|---------------|----------------|-----------2----|
A|-3--------------|---------2---------------|---------------|-1--------------|-0--------------|
E|----------------|-3-----------------------|---------------|----------------|----------------|


E|--------------0---1---|-5-----3---5---|-6------------8---6---|-5--------------|-3--------5---3----|
B|-3--------------------|---------------|---------8------------|------8----6----|--------------4----|
G|----------2-----------|---------------|-----7----------------|------7---------|--------------3----|
D|-0----0---------------|---------------|-5--------------------|-0--------------|------5------------|
A|-0--------------------|---------------|----------------------|----------------|-3-----------------|
E|----------------------|---------------|----------------------|----------------|-------------------|


E|--------------3---5---|-6------------8---6---|-5--------------|-------------------|
B|-3--------------------|----------------------|------6---------|-3------------4----|
G|--------------3---5---|---------8----8-------|-5---------5----|-------------------|
D|---------5------------|-----8--------8-------|------3---------|-0------------1----|
A|-----5----------------|-6--------------------|-3---------3----|-1-------1----1----|
E|-3--------------------|----------------------|----------------|-----1-------------|


E|-------------------------|-------------------------|----------------------|---------------|
B|-3-----------------------|-----------------1-------|------------------0---|-1-----3---1---|
G|-----------------0---2---|-3-------------------3---|-2-------0----2-------|-2-----2-------|
D|-0-----------4-----------|-1-------1-------1-------|--------------3-------|-2---------2---|
A|---------5---------------|-----1-------1-------1---|-----3--------3-------|-0-------------|
E|-----5-------------------|-------------------------|-1--------------------|---------------|


E|-----------------0---2---|-3-----------5---3----|-2----------|-0-----------------|
B|-0-----------------------|----------------------|-------3----|-0-----------------|
G|---------0---------------|----------------------|-2----------|---------2----1----|
D|---------2-------2---4---|----------------------|-4----------|-----2-------------|
A|-----2-------2-----------|-3-------3------------|-5----------|-------------------|
E|-0-----------------------|-----3----------------|------------|-0-----------------|


E|-------5---7---|-8-----12---|-10---7----3----|-5------|-----------------0---5---|
B|---------------|------------|----------------|--------|-------------1-----------|
G|---------------|------------|-0--------------|--------|---------2---------------|
D|---------------|------------|----------------|--------|-----2-------------------|
A|---------------|-0----------|----------------|-0------|-0-----------------------|
E|---------------|------------|----------------|--------|-------------------------|


Login or Register to remove this ad.