H'aanit Theme (Octopath Traveler) Guitar Tab

Submitted: Sep 08, 2018 by guitarsvd (Last updated: Sep 08, 2018)

5
Average: 5 (2 votes)
Download | No audio :(
Game: Octopath Traveler
Composer(s): Yasunori Nishiki
Style: Arrangement, Artificial harmonics, Fingerstyle, Natural harmonics

Click here for a video example.

AutoScroll: Slow | Medium | Fast
                              H'aait the Hunter                                 


                                                          Cecil Chau (GuitarSVD)
Track 1



     E  E  E  E  E  E     E  E  E  E  E   E     E  E  E   E  E  E   
E||--2--------------2--|--0--------0--2h--3--|--2---------------2--|
B||--------------0-----|---------------------|---------------0-----|
G||-----------0--------|-----------0---------|---------------------|
D||--------4-----------|--------4------------|--------0h--2--------|
A||-----2--------------|-----2---------------|--3------------------|
D||--2-----------------|--2------------------|-----5---------------|


  E  E  E   E  E  E     E  E  E  E  E  E     E  E  E  E  E  E   
--0------------L-----|--7--------------7--|--5-----------L--3--|
------------------3--|-----------0--------|-----------0--------|
---------------------|--------------7-----|--------------------|
--------0h--2--------|-----0--7-----------|--------7-----------|
--3------------------|--------------------|-----5--------------|
-----5---------------|--5-----------------|--5-----------------|


  E  E  E   Q.        E  E  E   Q.        E  E  E  E  E  E   
--2----------------|-------------------|--2--------------2--|
-------------------|--3----------------|--------------0-----|
-------------------|-------------------|--2--------0-----2--|
--------2h--4------|--------2h--4------|--------4-----------|
-----5-------------|-----5-------------|-----2--------------|
--0----------------|--0----------------|--2-----------------|


  E  E  E  E  E  E     E  E  E   E  E  E     E  E  E   E  E  E   
--0--------0--2--3--|--2---------------2--|--0------------------|
--------------------|---------------0-----|---------------3--1--|
--0--------0--2--4--|--2---------------2--|--0------------------|
--------4-----------|--------0h--2--------|--------0h--2--------|
-----2--------------|--3------------------|--3------------------|
--2-----------------|-----5---------------|-----5---------------|


                                              ^                
  E   E  E  E  E   E     E   E  E  E  Q       E  E  E  Q.      
----------------------|--5------3-----2----|--0--2--3--5------|
--0------------1h--3--|--------------------|--0---------------|
------------0---------|------------2-------|--0---------------|
---------2------------|---------0----------|------------------|
--0h--3---------------|--2h--3-------------|--3---------------|
----------------------|--------------------|------------------|


     NH                              NH    NH                                
     E  E  E  E   E  E     E   E     E     E  E  E     E   E  E   E   E  E   
------------------------|--0------------<>12--------|--7------7--12---------|
--<>12---------------0--|---------<>12--------------|-----10--0------10-----|
------------------------|-----11--------------------|--6---6----------9-----|
--------------2h--4-----|---------------------------|--------------------7--|
-----2-----2------------|---------------------------|--0----------0---------|
--------4---------------|---------------------9--8--|-----------------------|


                                                 NH  
  E   E  E   E  E   E      E   E   E   E   E     E   
--7------7--12-----14--|--14--12--16----------<>12--|
-----10-----10---------|---0------------------------|
--9---9------9--9------|--13------------------------|
-----------------------|----------------------------|
-----------------------|------------------11--------|
--9----------9---------|--11----------11------------|


     NH    NH                                                           
     E     E     E  E  E   E     E  E  E  E  E  E     Q    E  E  E  E   
--------<>12------------------|--7--5--4--2-----4--|--0----------0-----|
--<>19--------<>21-----9--10--|--0--5-----0--------|--0----0-----0--4--|
------------------------------|-----6--------4-----|-------------------|
------------------------------|--------------------|-------------------|
-----------6-----------6------|--0--------0--------|--2----------------|
-----6--------------6---------|--------------------|----------4--------|


                                           NH         NH    NH        
  E  E  E  E  E  E     Q.     Q.           E    E     E     E  E  E   
--0-----------------|----------------|-------------------<>12--------|
--------------------|---------0------|--<>12-------<>12--------------|
--------------------|--2------2------|--------<>2--------------------|
-----------2--------|--4------4------|----------------------2--------|
--4-----4-----4--3--|--2-------------|-----0----------0--------0-----|
-----6--------------|---------2------|----------2-----------------2--|


     NH         NH    NH       NH       NH    NH               NH  
     E    E     E     E  E     E        E     E    E  E  E     E   
-------------------<>12-----------|--------<>12--<>4--------<>12--|
--<>12-------<>12-----------<>19--|--<>19-------------------------|
--------<>2-----------------------|-------------------------------|
----------------------2-----------|-------------------------------|
-----2----------2--------2--------|-----4----------4--7--4--------|
----------4--------------------4--|-----------6----------------6--|


     NH    NH    NH                                                   
     E     E     E  Q    S S    E  E  E  E  E  E     Q.     E  E  E   
--------<>12--<>19-------4-5-|--7--5--3--2--0-----|------------------|
--<>19-----------------------|-----5--------1--3--|--0---------------|
-----1--------------1--------|--5--------2--------|---------2--------|
-----1--------------0--------|--------------------|------------------|
-----2-----------------------|--0-----------------|--0------------0--|
--------------------2--------|--------------------|--0---------2-----|


                                                        ^                NH  
  Q.     E  E  E     H.                Q.     Q.        E  E  E  E  E    E   
--7---------------|--7-------------||----------------|--0--------------<>0--|
--0---------7-----|----------------||--0-------------|--0-----------0-------|
---------9-----9--|--8------------*||---------2------|-----------1----------|
------------------|---------------*||---------2------|--------2-------------|
------------------|----------------||--0------0------|-----2----------------|
--9---------------|--L-------------||--0-------------|--2-------------------|


     NH             
     H.             
--<>12------------||
------------------||
------------------||
------------------||
------------------||
-----L------------||




Duration Legend
---------------
W - whole
H - half
Q - quarter
E - 8th
S - 16th
T - 32nd
X - 64th
. - note dotted
|-n-|  - n-tuplets


Tablature Legend
----------------
L - tied note
x - dead note
g - grace note
(n) - ghost note
> - accentuded note
NH - natural harmonic
AH - artificial harmonic
TH - tapped harmonic
SH - semi harmonic
PH - pitch harmonic
h - hammer on
p - pull off
b - bend
br - bendRelease
pb - preBend
pbr - preBendRelease
brb - bendReleaseBend
\n/ - tremolo bar dip
\n - tremolo bar dive
-/n - tremolo bar Release up
/n\ - tremolo bar inverted dip
/n - tremolo bar return
-\n - tremolo bar Release down
S - shift slide
s - legato slide
/ -  slide into from below or out of upwards
\ -  slide into from above or out of downwards
~ - vibrato
W - wide vibrato
tr - trill
TP - tremolo picking
T - tapping
S - slap
P - pop
< - fade in
^ - brush up
v - brush down
Login or Register to remove this ad.