Gratitude (Octopath Traveler) Guitar Tab

Submitted: Jul 19, 2018 by guitarsvd

5
Average: 5 (3 votes)
Download | Listen
Game: Octopath Traveler
Composer(s): Yasunori Nishiki
Style: Arrangement, Fingerstyle

Click here for a video example.

AutoScroll: Slow | Medium | Fast
Octopath Traveler - Gratitude

Composed by Yasunori Nishiki 
Arranged by Cecil Chau
                                                          ^                        
     E  E  E   E  Q.     E     E  E   E  E  E  E  Q       E  E  E  E   Q    E  E   
E||-----------/5--3------2--|--0-----/2----------------|-----------5--/7-------5--|
B||--------3------0---------|-----3------3--------3----|--3-----3-----------------|
G||-----2---------0---------|-----2---------2-----2----|--2--2--------------------|
D||--0----------------------|------------------4-------|--4-----------------------|
A||-------------------------|--0------------5----------|--5-----------------------|
E||---------------3---------|--------------------------|---------------3----2-----|


                                                      ^                        
  E  E  E  E   H           E  E  E   E  E  E  Q       E  E  E  E  E  E  E  E   
--3--2------------------|--------2--10--9--7--5----|-----------6--5-----------|
--------5--3--/5--------|-----3---------------7----|--3-----3-----------7-----|
--------------/6--------|-----0------------7-------|--3--3--------------6-----|
--------------/7--------|---------------0----------|--3--------------7-----7--|
---------------0--------|--------------------------|--------------5-----------|
--0---------------------|--3-----------------------|--3-----------------------|


  E  E  E  E  E  E   E  E     Q    E  E  H           E   E  E  E  E  E  E  E   
--------------3--2--/5-----|-------0--2--0--------|-----10--9--5--3--2--------|
--------2--3--3------0--3--|--3----------2--------|---------------------3-----|
-----4--0-----2------0-----|-------------2--------|-----11--9--6--4--2--0--2--|
-----0---------------------|----------------------|---------------------------|
---------------------------|-------------0--------|---------------------------|
--0------------------------|--3-------------------|---------------------------|


  E  E  E   E  E  E  E  E     E  E  E  E   E  E  Q       E   E  E  E   E  E  Q     
-----------/5--3--2--0-----|--0-----0--2--/5-----5----|-----10--8--6--------------|
--------3------3-----3--3--|-----3--3------------3----|------------8--10-----8----|
-----2---------3--------3--|-----3------------2-------|---------8------------8----|
--0------------2-----------|--2------------0----------|------8------------8-------|
---------------------------|--------------------------|--6-------------6----------|
---------------------------|--------------------------|---------------------------|


                             NH          NH                                         
  E  E  E  E  H              E  E  E     E   E  E  Q       E  E  E   E  E  E  Q     
--5--------------------|---------------------9--7--5----|--8------------7----------|
-----------3--2--------|--------0--2-----3--10-----5----|---------------------7----|
--------2-----2--------|--<>19--------<>19---9--7--6----|---------------------8----|
-----2--------2--------|-----0--------------------------|-----7--9--10-----9-------|
--0-----------0--------|---------------------0----------|--0-----------------------|
-----------------------|-----3--------------------------|---------------7----------|


   Q    E  E  H           E  E  E  E  E  E  E  E     E  E  E  E  E  E  E  E   
--/5----3--2-----------|-----5--3--2--------------|--------0--2--0-----0--2--|
--------------3--------|--------------3-----------|-----3--0--------3--0-----|
--------------0--------|--------------------2-----|--------------0-----------|
-----------------------|-----------------4-----4--|--0-----------------------|
-----------------------|--------1-----2-----------|--------------------------|
---0----2-----3--------|--2-----------------------|--0-----------------------|


   E  E  E  E  H           W                   W                   E  E  E   E  Q.     E   
--/5--------------------|--3----------------|--2----------------|-----------/5--3------2--|
------------3--2--------|--3----------------|--3----------------|--------3------0---------|
---------2-----2--------|--2----------------|--2----------------|-----2---------0---------|
------2--------2--------|--0----------------|--0----------------|--0----------------------|
---0--------------------|-------------------|-------------------|-------------------------|
------------------------|-------------------|-------------------|---------------3---------|


                             ^                                                 
  E   E  E  E  E  E  Q       E  E  E  E   Q    E  E     E  E  E  E   H         
--0------2----------------|-----------5--/7-------5--|--3--2------------------|
-----/3-----3--------3----|--3-----3-----------------|--------5--3--/5--------|
-----/2--------2-----2----|--2--2--------------------|--------------/6--------|
------------------4-------|--4-----------------------|--------------/7--------|
--0------------5----------|--5-----------------------|---------------0--------|
--------------------------|---------------3----2-----|--0---------------------|


                             ^                                                    
  E  E  E   E  E  E  Q       E  E  E  E  E  E  E  E     E  E  E  E  E  E   E  E   
--------2--10--9--7--5----|-----------6--5-----------|--------------3--2--/5-----|
-----3---------------7----|--3-----3-----------7-----|--------2--3--3------0--3--|
-----0------------7-------|--3--3--------------6-----|-----4--0-----2------0-----|
---------------0----------|--3--------------7-----7--|-----0---------------------|
--------------------------|--------------5-----------|---------------------------|
--3-----------------------|--3-----------------------|--0------------------------|


  Q    E  E  H           E   E  E  E  E  E  E  E     E  E  E   E  E  E  E  E   
-------0--2--0--------|-----10--9--5--3--2--------|-----------/5--3--2--0-----|
--3----------2--------|---------------------3-----|--------3------3-----3--3--|
-------------2--------|-----11--9--6--4--2--0--2--|-----2---------3--3-----3--|
----------------------|---------------------------|--0------------2-----------|
-------------0--------|---------------------------|---------------------------|
--3-------------------|---------------------------|---------------------------|


  E  E  E  E   E  E  Q       E   E  E  E   E  E  Q       E  E  E  E  H         
--0-----0--2--/5-----5----|-----10--8--6--------------|--5--------------------|
-----3--3------------3----|------------8--10-----8----|-----------3--2--------|
-----3------------2-------|---------8------------8----|--------2-----2--------|
--2------------0----------|------8------------8-------|-----2--------2--------|
--------------------------|--6-------------6----------|--0-----------0--------|
--------------------------|---------------------------|-----------------------|


     NH          NH                                                                
     E  E  E     E   E  E  Q       E  E  E   E  E  E  Q       Q    E  E  H         
---------------------9--7--5----|--8------------7----------|--5----3--2-----------|
--------0--2-----3--10-----5----|---------------------7----|-------------3--------|
--<>19--------<>19---9--7--6----|---------------------8----|-------------0--------|
-----0--------------------------|-----7--9--10-----9-------|----------------------|
---------------------0----------|--0-----------------------|----------------------|
-----3--------------------------|---------------7----------|--0----2-----3--------|


  E  E  E  E  E  E  E  E     E  E  E  E  E  E  E  E     E  E  E  E  H           W                 
-----5--3--2--------------|--------0--2--0-----0--2--|--5--------------------|--3----------------|
--------------3-----------|-----3--0--------3--0-----|-----------3--2--------|--3----------------|
--------------------2-----|--------------0-----------|--------2-----2--------|--2----------------|
-----------------4-----4--|--0-----------------------|-----2--------2--------|--0----------------|
--------1-----2-----------|--------------------------|--0--------------------|-------------------|
--2-----------------------|--0-----------------------|-----------------------|-------------------|


  W                  
--2----------------||
--3----------------||
--2----------------||
--0----------------||
-------------------||
-------------------||




Duration Legend
---------------
W - whole
H - half
Q - quarter
E - 8th
S - 16th
T - 32nd
X - 64th
. - note dotted
|-n-|  - n-tuplets


Tablature Legend
----------------
L - tied note
x - dead note
g - grace note
(n) - ghost note
> - accentuded note
NH - natural harmonic
AH - artificial harmonic
TH - tapped harmonic
SH - semi harmonic
PH - pitch harmonic
h - hammer on
p - pull off
b - bend
br - bendRelease
pb - preBend
pbr - preBendRelease
brb - bendReleaseBend
\n/ - tremolo bar dip
\n - tremolo bar dive
-/n - tremolo bar Release up
/n\ - tremolo bar inverted dip
/n - tremolo bar return
-\n - tremolo bar Release down
S - shift slide
s - legato slide
/ -  slide into from below or out of upwards
\ -  slide into from above or out of downwards
~ - vibrato
W - wide vibrato
tr - trill
TP - tremolo picking
T - tapping
S - slap
P - pop
< - fade in
^ - brush up
v - brush down
Login or Register to remove this ad.