For Succor (Alfyn Boss Battle Theme) (Octopath Traveler) Bass/Guitar Tab

Submitted: Jul 19, 2018 by einkurogane (Last updated: Jul 20, 2018)

0
Download | Listen
Game: Octopath Traveler
Composer(s): Yasunori Nishiki
Style: 2 or more instruments, Transcription

AutoScroll: Slow | Medium | Fast
Title: For Succor
SubTitle: (Alfyn Boss Battle Theme)
Artist: OCTOPATH TRAVELER
Album: OCTOPATH TRAVELER OST
Composed by: Yasunori Nishiki
Arranged by: Vitor Ni (EinKurogane)
Tempo = 80

// Guitar Rhythm //

E |----------------------------------------------------|
B |----------------------------------------------------|
G |--7--7-----7--7-----7--7-----7--7-----7-----7--7----|
D |--7--7--7--7--7--7--7--7--7--7--7--7--7--7--7--7----|
A |--5--5--5--5--5--5--5--5--5--5--5--5--5--5--5--5----|
E |----------------------------------------------------|


----------------------------------------------------|
----------------------------------------------------|
--5--5-----5--5-----5--5-----5--5-----5--5--5--5----|
--5--5--5--5--5--5--5--5--5--5--5--5--5--5--5--5----|
--3--3--3--3--3--3--3--3--3--3--3--3--3--3--3--3----|
----------------------------------------------------|


----------------------------------------------------|
----------------------------------------------------|
--3--3-----3--3-----3--3-----3--3-----3--3--3--3----|
--3--3--3--3--3--3--3--3--3--3--3--3--3--3--3--3----|
--1--1--1--1--1--1--1--1--1--1--1--1--1--1--1--1----|
----------------------------------------------------|


----------------------------------------------------|
----------------------------------------------------|
--3--3-----3--3-----3--3-----3--3-----3--3--3--3----|
--3--3--3--3--3--3--3--3--3--3--3--3--3--3--3--3----|
--1--1--1--1--1--1--1--1--1--1--1--1--1--1--1--1----|
----------------------------------------------------|


----------------------------------------------------|
----------------------------------------------------|
----------------------------------------------------|
--5--5-----5--5-----5--5-----5--5-----5--5--5--5----|
--5--5--5--5--5--5--5--5--5--5--5--5--5--5--5--5----|
--3--3--3--3--3--3--3--3--3--3--3--3--3--3--3--3----|


----------------------------------------------------|
----------------------------------------------------|
----------------------------------------------------|
--7--7-----7--7-----7--7-----7--7-----7--7--7--7----|
--7--7--7--7--7--7--7--7--7--7--7--7--7--7--7--7----|
--5--5--5--5--5--5--5--5--5--5--5--5--5--5--5--5----|


----------------------------|----------------------------|
----------------------------|----------------------------|
--7-----7--7L----7--7--7----|--7-----7--7L----7--7--7----|
--7-----7--7L----7--7--7----|--7-----7--7L----7--7--7----|
--5-----5--5L----5--5--5----|--5-----5--5L----5--5--5----|
----------------------------|----------------------------|


----------------------------------------------------|
----------------------------------------------------|
--7--7--7--5-----5--5--3-----3--3--2-----2--2-------|
--7--7--7--5-----5--5--3-----3--3--2-----2--2-------|
--5--5--5--3-----3--3--1-----1--1--0-----0--0-------|
----------------------------------------------------|


----------------------------------------------------|-------||
----------------------------------------------------|-------||
--------------------------------------8--8--8-------|--7----||
--6--------6--------6--------6--------8--8--8-------|--7----||
--6--------6--------6--------6--------6--6--6-------|--5----||
--4--------4--------4--------4----------------------|-------||


// Guitar Solo //

E |----------------------------|-------|----------------|
B |----------------------------|-------|-----------6----|
G |--7L----7-----------7--7----|--9----|-----7--9-------|
D |----------------------------|-------|----------------|
A |----------------------------|-------|----------------|
E |----------------------------|-------|----------------|


----------------------------------------------------|----------------|
--------------------10L---------------------10------|-----11-10------|
--9--------7----------------------------------------|-----------12---|
----------------------------------------------------|----------------|
----------------------------------------------------|----------------|
----------------------------------------------------|----------------|


-----17---|----------------------------|----------------------------|
--15------|----------------------------|--8--------10---------------|
----------|--9--------10---------------|----------------------------|
----------|----------------------------|----------------------------|
----------|----------------------------|----------------------------|
----------|----------------------------|----------------------------|


--------------------------------------------10----------------------10----------
--10----------------10----------------------------------10----------------------
--------12----------------------12----------------------------12----------------
--------------12----------------------12----------------------------------------
--------------------------------------------------------------------------------
--------------------------------------------------------------------------------


---------------8----|--10-------10-------10-------10-------11----11------|
10----------10------|----------------------------------------------------|
------12------------|----------------------------------------------------|
--------------------|----------------------------------------------------|
--------------------|----------------------------------------------------|
--------------------|----------------------------------------------------|


--10---||
-------||
-------||
-------||
-------||
-------||


// Bass //

G |--------------------7--7-----7--7-------------------|
D |----------------------------------------------------|
A |--5--5-----5--5-----------------------5--5--5--5----|
E |----------------------------------------------------|


----------------------------------------------------|
--------------10----10----8-----8-----7-------------|
--7--7-----7----------------------------------------|
----------------------------------------------------|


----------------------------------------------------|
----------------------------------------------------|
----------------------------------------------------|
--6--6-----6--6-----6--6-----6--6-----6--6--6--6----|


----------------------------------------------------|
--------------------------------------8--8--8--8----|
----------------------------------------------------|
--6--6-----6--6-----6--6-----6--6-------------------|


----------------------------------------------------|
--------------------------------------5--5--5--5----|
----------------------------------------------------|
--3--3-----3--3-----3--3-----3--3-------------------|


----------------------------------------------------|
--------------------------------------7--7--7--7----|
----------------------------------------------------|
--5--5-----5--5-----5--5-----5--5-------------------|


--7-----------------7-----------------7-----7-------|
----------------------------------------------------|
-----------5--5--------------5--5-------------------|
----------------------------------------------------|


--7-----------------7-----------------7-----7-------|
----------------------------------------------------|
-----------5--5--------------5--5-------------------|
----------------------------------------------------|


----------------------------------------------------|
----------------------------------------------------|
--5--5--5--3-----3--3--1-----1--1--0-----0--0-------|
----------------------------------------------------|


----------------------------------------------------|-------||
----------------------------------------------------|-------||
--------------------------------------6--6--6-------|--5----||
--4-------------------------------------------------|-------||

Login or Register to remove this ad.